Song name
# A B C D E F G H I J K L M N O P Q R S T U V W X Y Z

Iron Maiden - Back In The Village tab

-------------------------------------------------------------------------------
			     BACK IN THE VILLAGE - Iron Maiden
-------------------------------------------------------------------------------
Tabbed by: guichemot
Email: Just post me.

I LOVE THIS SONG!  Here's the intro.

e|---------------------------------------------------------------------------|
B|---------------1-------0-------------------------1-------------------------|
G|-----------------2-0-2---2-0-2---------------------2-0-2-2~----------------|
D|-----5-----4-------------------------5-----4-------------------------------|
A|-0-0---0-0---0-0-----------------0-0---0-0---0-0---------------------------|
E|---------------------------------------------------------------------------|

Repeat, except harmonic last note.  Then...

e|---------------------------------------------------------------------------|
B|---------------1-3-----------------------------1-3-------1+----------------|
G|---------0-2-0-------0-------------------0-2-0-------0-2-------------------|
D|---0-2-0-----------0---0-----------0-2-0-----------0-----------------------|
A|-0-------------------------0-----0-----------------------------------------|
E|-------------------------0---3-0-------------------------------------------|

Repeat twice without the harmonic.  Then, repeat the first riff, which repeats a whole 
throughout the song.

| /  slide up
| \  slide down
| h  hammer-on
| p  pull-off
| ~  vibrato
| +  harmonic
| x  Mute note
===============================================================================
Tap to rate this tab
# A B C D E F G H I J K L M N O P Q R S T U V W X Y Z