Song name
# A B C D E F G H I J K L M N O P Q R S T U V W X Y Z

Iron Maiden - Burning Ambition tab

e:--------12-10-9-----10-8-7--------7---------------------|
B:-----10-----------8---------7-8-10---10-8-7-8-7h8p7-----|
G:---11------------9----------------------------------7---|
D:-12------------10---------------------------------------|
A:--------------------------------------------------------|
E:--------------------------------------------------------|

e:-----------------------------------|
B:-----------------------------------|
G:-----------------------------------|
D:-7-7-7/2-2-2/5-5-5-------------3-5-|
A:-5-5-5/0-0-0/3-3-3-------3-4-5-----|
E:-------------------3-4-5-----------|

e:--------------------------------------|
B:--------------------------------------|
G:-------------------7-7-7/5------------|
D:-7-7-7/2-2-2/5-5-5-5-5-5/3-5/7--------|
A:-5-5-5/0-0-0/3-3-3---------3/5--------|
E:--------------------------------------|
Tap to rate this tab
# A B C D E F G H I J K L M N O P Q R S T U V W X Y Z