Song name
# A B C D E F G H I J K L M N O P Q R S T U V W X Y Z

Iron Maiden - From Here To Eternity tab

Iron Maiden - "From Here To Eternity", made by Steve Harris, from the album "Fear Of The Dark" (1992).

Intro:

E |--------------------------------------------------------------|
H |--------------------------------------------------------------|
G |-7-7-7-7-7-7-7--5-5-5-5-5-5-5-5-4-4-4-4-5-4-5-7-7-7-7-7-5-5-7-|
D |-7-7-7-7-7-7-7--5-5-5-5-5-5-5-5-4-4-4-4-5-4-5-7-7-7-7-7-5-5-7-|
A |--------------------------------------------------------------|
E |--------------------------------------------------------------|

E |--------------------------------------------------------------|
H |--------------------------------------------------------------|
G |-7-7-7-7-7-7-7--5-5-5-5-5-5-5-5-4-4-4-4-5-4-5-7-7-7-7-7-5-5-7-|
D |-7-7-7-7-7-7-7--5-5-5-5-5-5-5-5-4-4-4-4-5-4-5-7-7-7-7-7-5-5-7-|
A |--------------------------------------------------------------|
E |--------------------------------------------------------------|

E |--------------------------------------------------------------|
H |--------------------------------------------------------------|
G |-7-7-7-7-7-7-7--5-5-5-5-5-5-5-5-4-4-4-4-5-4-5-7-7-7-7-7-5-5-7-|
D |-7-7-7-7-7-7-7--5-5-5-5-5-5-5-5-4-4-4-4-5-4-5-7-7-7-7-7-5-5-7-|
A |--------------------------------------------------------------|
E |--------------------------------------------------------------|

E |--------------------------------------------------------------|
H |--------------------------------------------------------------|
G |-7-7-7-7-7-7-7--5-5-5-5-5-5-5-5-3-3-3-3-5-3-5-7-7-7-7-7-7-7-7-|
D |-7-7-7-7-7-7-7--5-5-5-5-5-5-5-5-3-3-3-3-5-3-5-7-7-7-7-7-7-7-7-|
A |--------------------------------------------------------------|
E |--------------------------------------------------------------|

In the last two parts the second guitar plays this:

E |----------------------------------|-------------------------------------|
H |-------------------12b14-12-------|-------------------12b14-12----13b15-|
G |----10----10----10-12b14-12-10----|----10----10----10-12b14-12-10-------|
D |-12----12----12----------------12-|-12----12----12----------------------|
A |----------------------------------|-------------------------------------|
E |----------------------------------|-------------------------------------|

E |----------------------------------|----------------10-15b17-13-20b22----|
H |-------------------12b14-12-------|----------10-13----------------------|
G |----10----10----10-12b14-12-10----|----10-12----------------------------|
D |-12----12----12----------------12-|-12----------------------------------|
A |----------------------------------|-------------------------------------|
E |----------------------------------|-------------------------------------|


Main riff:

She fell in love with his greasy machine...
E |-------------------------------------------------------------|
H |-------------------------------------------------------------|
G |-------------------------------------------------------------|
D |-9--9-9-9-9-9-9-7--7-7-7-7-7-7-5--5-5-5-5-5-5-7--7-7-7-7-7-7-|
A |-7--7-7-7-7-7-7-5--5-5-5-5-5-5-3--3-3-3-3-3-3-5--5-5-5-5-5-5-|
E |-0--0-0-0-0-0-0----------------------------------------------|

She'd never seen the beast before...
E |------------------------------------------------------------|
H |------------------------------------------------------------|
G |------------------------------------------------------------|
D |-9--9-9-9-9-9-9-7--7-7-7-7-7-7-5--5-5-5-5-5-5-5-7-7-7-------|
A |-7--7-7-7-7-7-7-5--5-5-5-5-5-5-3--3-3-3-3-3-3-3-5-5-5-------|
E |-0--0-0-0-0-0-0---------------------------------------5-3-0-|

But when she was walking on down the road...
E |-------------------------------------------------------------|
H |-------------------------------------------------------------|
G |-------------------------------------------------------------|
D |-9--9-9-9-9-9-9-7--7-7-7-7-7-7-5--5-5-5-5-5-5-7--7-7-7-7-7-7-|
A |-7--7-7-7-7-7-7-5--5-5-5-5-5-5-3--3-3-3-3-3-3-5--5-5-5-5-5-5-|
E |-0--0-0-0-0-0-0----------------------------------------------|

He whispered to her to get on the back...
E |------------------------------------------------------------|
H |------------------------------------------------------------|
G |------------------------------------------------------------|
D |-9--9-9-9-9-9-9-7--7-7-7-7-7-7-5--5-5-5-5-5-5-5-7-7-7-------|
A |-7--7-7-7-7-7-7-5--5-5-5-5-5-5-3--3-3-3-3-3-3-3-5-5-5-------|
E |-0--0-0-0-0-0-0---------------------------------------5-3-0-|


Chorus:

Hell ain't a bad place...
E |------------------------------------------------------------|
H |------------------------------------------------------------|
G |------------------------------------------------------------|
D |----------------------------------7-6---7-6---7-6-----------|
A |-2--2-2-2-2-2-2-7-6-2-2-2-2-2-2-2-----7-----7-----7-5-------|
E |-0--0-0-0-0-0-0-5-4-0-0-0-0-0-0-0---------------------7-5-4-|


Before the solo (remember: the last one has the different ending):

E |---------------------------------------------------------------|
H |---------------------------------------------------------------|
G |-9-9-9-9-9-9-9--7-7-7-7-7-7-7-7-6-6-6-6-7-6-7-9-9-9-9-9--5-5-7-|
D |-9-9-9-9-9-9-9--7-7-7-7-7-7-7-7-6-6-6-6-7-6-7-9-9-9-9-9--5-5-7-|
A |---------------------------------------------------------------|
E |---------------------------------------------------------------|


Solo:

E |-------------------------------------------------------------|
H |-------------------------------------------------------------|
G |-------------------------------------------------------------|
D |-9--9-9-9-9-9-9-7--7-7-7-7-7-7-5--5-5-5-5-5-5-7--7-7-7-7-7-7-|
A |-7--7-7-7-7-7-7-5--5-5-5-5-5-5-3--3-3-3-3-3-3-5--5-5-5-5-5-5-|
E |-0--0-0-0-0-0-0----------------------------------------------|

E |-------------------------------------------------------------|
H |-------------------------------------------------------------|
G |-------------------------------------------------------------|
D |-9--9-9-9-9-9-9-7--7-7-7-7-7-7-5--5-5-5-5-5-5-7--7-7-7-7-7-7-|
A |-7--7-7-7-7-7-7-5--5-5-5-5-5-5-3--3-3-3-3-3-3-5--5-5-5-5-5-5-|
E |-0--0-0-0-0-0-0----------------------------------------------|

E |-------------------------------------------------------------|
H |-------------------------------------------------------------|
G |-------------------------------------------------------------|
D |-7--7-7-7-7-7-7-5--5-5-5-5-5-5-3--3-3-3-3-3-3-5--5-5-5-5-5-5-|
A |-5--5-5-5-5-5-5-3--3-3-3-3-3-3-1--1-1-1-1-1-1-3--3-3-3-3-3-3-|
E |-------------------------------------------------------------|

E |-------------------------------------------------------------|
H |-------------------------------------------------------------|
G |-------------------------------------------------------------|
D |-7--7-7-7-7-7-7-5--5-5-5-5-5-5-3--3-3-3-3-3-3-5--5-5-5-5-5-5-|
A |-5--5-5-5-5-5-5-3--3-3-3-3-3-3-1--1-1-1-1-1-1-3--3-3-3-3-3-3-|
E |-------------------------------------------------------------|

Intro x 4
Main riff x 2
Chorus x 2
Main riff x 2
Chorus x 4
Before the solo x 4
Solo (Main riff) x 4
Chorus x 4
Ending
Tap to rate this tab
# A B C D E F G H I J K L M N O P Q R S T U V W X Y Z