Guitaretab - guitar tabs
Song name
# A B C D E F G H I J K L M N O P Q R S T U V W X Y Z

Iron Maiden - Phantom Of The Opera tab

Phantom of the Opera
The solo is about 4 minutes long so don't think I just skipped half the song.
This is probably about 95% accurate.
This is my first tab and it took much longer than it should have.


----------------------------------------------------------------------|
----------------------------------------------------------------------|
-----------4---4hm5p4-------7---4-------5---4-------------------------|
---5---7----------------5-----------5-----------5---4---5---7---------|
----------------------------------------------------------------------|
----------------------------------------------------------------7-----|


----------------------------------------------------------------------|
----------------------------------------------------------------------|
-----------4---4hm5p4-------7---4-------5---4-------------------------|
---5---7----------------5-----------5-----------5---4---5---7---------|
----------------------------------------------------------------------|
----------------------------------------------------------------7-----|

----------------------------------------------------------------------|
----------------------------------------------------------------------|
-----------4---4hm5p4-------7---4-------5---4-------------------------|
---5---7----------------5-----------5-----------5---4---5---7---------|
----------------------------------------------------------------------|
----------------------------------------------------------------7-----|

----------------------------------------------------------------------|
----------------------------------------------------------------------|
-----------4---4hm5p4-------7---4-------5---4-------------------------|
---5---7----------------5-----------5-----------5---4---5---7---------|
----------------------------------------------------------------------|
----------------------------------------------------------------------|

----------------------------------------------------------------------|
----------------------------------------------------------------------|
----4-4-4---5-5-5---7-7-7---9-9-9---12-12-12---14-14-14---------------|
----------------------------------------------------------12-12-12----|
----------------------------------------------------------------------|
----------------------------------------------------------------------|

----------------------------------------------------------------------|
----------------------------------------------------------------------|
----------------------------------------------------------------------|
---15-15-15---15p12--------15p12--------15p12--------15p12------------|
----------------------12-----------12-----------12----------12--------|
----------------------------------------------------------------------|

----------------------------------------------------------------------|
----------------------------------------------------------------------|
------------------------------------------------7---------------------|
------------------------------------------------7---7-----------------|
---7-7-7-10-7-7---7-7-7-10-7-7---7-7-7-10-7-7---5---7-----------------|
------------------------------------------------5---5-----------------|

----------------------------------------------------------------------|
----------------------------------------------------------------------|
------------------------------------------------7---------------------|
------------------------------------------------7---7-----------------|
---7-7-7-10-7-7---7-7-7-10-7-7---7-7-7-10-7-7---5---7-----------------|
------------------------------------------------5---5-----------------|

----------------------------------------------------------------------|
----------------------------------------------------------------------|
------------------------------------------------7---------------------|
------------------------------------------------7---7-----------------|
---7-7-7-10-7-7---7-7-7-10-7-7---7-7-7-10-7-7---5---7-----------------|
------------------------------------------------5---5-----------------|

----------------------------------------------------------------------|
----------------------------------------------------------------------|
------------------------------------------------7---------------------|
------------------------------------------------7---7-----------------|
---7-7-7-10-7-7---7-7-7-10-7-7---7-7-7-10-7-7---5---7-----------------|
------------------------------------------------5---5-----------------|

-----------------------------------------------------------------------|
-----------------------------------------------------------------------|
-----------------------------------------------------------------------|
-----------------------------------------------------------------------|
---9-9-9-12-9-9---9-9-9-12-9-9---10-10-10-13-10-10---10-10-10-13-10-10-|
-----------------------------------------------------------------------|

-----------------------------------------------------------------------|
-----------------------------------------------------------------------|
-----------------------------------------------------------------------|
-----------------------------------------------------------------------|
---9-9-9-12-9-9---9-9-9-12-9-9---10-10-10-13-10-10---10-10-10-13-10-10-|
-----------------------------------------------------------------------|

-----------------------------------------------------------------------|
-----------------------------------------------------------------------|
-----------------------------------------------------------------------|
-----------------------------------------------------------------------|
---9-9-9-12-9-9---9-9-9-12-9-9---10-10-10-13-10-10---10-10-10-13-10-10-|
-----------------------------------------------------------------------|

----------------------------------------------------------------------|
----------------------------------------------------------------------|
---9---9---4---4---5---5---7---7--------------------------------------|
---9---9---4---4---5---5---7---7--------------------------------------|
---7---7---2---2---3---3---5---5--------------------------------------|
----------------------------------------------------------------------|

-----------------------------------------------------------------------|
-----------------------------------------------------------------------|
------------------------------------------------7---7---7--------------|
------------------------------------------------7---7---7--------------|
---7-7-7-10-7-7---7-7-7-10-7-7---7-7-7-10-7-7---5---5---5--------------|
-----------------------------------------------------------------------|

----------------------------------------------------------------------|
----------------------------------------------------------------------|
------------------------------------------------7---7---7-------------|
------------------------------------------------7---7---7-------------|
---7-7-7-10-7-7---7-7-7-10-7-7---7-7-7-10-7-7---5---5---5-------------|
----------------------------------------------------------------------|

---------------------------------------------------------------------|
---------------------------------------------------------------------|
---9---9---4---4---5---5---7---7-------------------------------------|
---9---9---4---4---5---5---7---7-------------------------------------|
---7---7---2---2---3---3---5---5-------------------------------------|
---------------------------------------------------------------------|

-----------------------------------------------------------------------|
-----------------------------------------------------------------------|
------------------------------------------------7---7---7--------------|
------------------------------------------------7---7---7--------------|
---7-7-7-10-7-7---7-7-7-10-7-7---7-7-7-10-7-7---5---5---5--------------|
-----------------------------------------------------------------------|

----------------------------------------------------------------------|
----------------------------------------------------------------------|
------------------------------------------------7---7---7-------------|
------------------------------------------------7---7---7-------------|
---7-7-7-10-7-7---7-7-7-10-7-7---7-7-7-10-7-7---5---5---5-------------|
----------------------------------------------------------------------|

----------------------------------------------------------------------|
----------------------------------------------------------------------|
-----------4---4hm5p4-------7---4-------5---4-------------------------|
---5---7----------------5-----------5-----------5---4---5---7---------|
----------------------------------------------------------------------|
----------------------------------------------------------------------|

----------------------------------------------------------------------|
----------------------------------------------------------------------|
------------------------------------------------7---7---7-------------|
------------------------------------------------7---7---7-------------|
---7-7-7-10-7-7---7-7-7-10-7-7---7-7-7-10-7-7---5---5---5-------------|
----------------------------------------------------------------------|

----------------------------------------------------------------------|
----------------------------------------------------------------------|
------------------------------------------------7---7---7-------------|
------------------------------------------------7---7---7-------------|
---7-7-7-10-7-7---7-7-7-10-7-7---7-7-7-10-7-7---5---5---5-------------|
----------------------------------------------------------------------|

----------------------------------------------------------------------|
----------------------------------------------------------------------|
-----------4---4hm5p4-------7---4-------5---4-------------------------|
---5---7----------------5-----------5-----------5---4---5---7---------|
----------------------------------------------------------------------|
----------------------------------------------------------------------|

----------------------------------------------------------------------|
----------------------------------------------------------------------|
------------------------------------------------7---7---7-------------|
------------------------------------------------7---7---7-------------|
---7-7-7-10-7-7---7-7-7-10-7-7---7-7-7-10-7-7---5---5---5-------------|
----------------------------------------------------------------------|

----------------------------------------------------------------------|
----------------------------------------------------------------------|
------------------------------------------------7---7---7-------------|
------------------------------------------------7---7---7-------------|
---7-7-7-10-7-7---7-7-7-10-7-7---7-7-7-10-7-7---5---5---5-------------|
----------------------------------------------------------------------|

---------------------------------------------------------------------|
---------------------------------------------------------------------|
---9---9---4---4---5---5---7---7-------------------------------------|
---9---9---4---4---5---5---7---7-------------------------------------|
---7---7---2---2---3---3---5---5-------------------------------------|
---------------------------------------------------------------------|

----------------------------------------------------------------------|
----------------------------------------------------------------------|
------------------------------------------------7---7---7-------------|
------------------------------------------------7---7---7-------------|
---7-7-7-10-7-7---7-7-7-10-7-7---7-7-7-10-7-7---5---5---5-------------|
----------------------------------------------------------------------|

----------------------------------------------------------------------|
----------------------------------------------------------------------|
------------------------------------------------7---7---7-------------|
------------------------------------------------7---7---7-------------|
---7-7-7-10-7-7---7-7-7-10-7-7---7-7-7-10-7-7---5---5---5-------------|
----------------------------------------------------------------------|

---------------------------------------------------------------------|
---------------------------------------------------------------------|
---9---9---4---4---5---5---7---7-------------------------------------|
---9---9---4---4---5---5---7---7-------------------------------------|
---7---7---2---2---3---3---5---5-------------------------------------|
---------------------------------------------------------------------|

----------------------------------------------------------------------|
----------------------------------------------------------------------|
------------------------------------------------7---7---7-------------|
------------------------------------------------7---7---7-------------|
---7-7-7-10-7-7---7-7-7-10-7-7---7-7-7-10-7-7---5---5---5-------------|
----------------------------------------------------------------------|

----------------------------------------------------------------------|
----------------------------------------------------------------------|
------------------------------------------------7---7---7-------------|
------------------------------------------------7---7---7-------------|
---7-7-7-10-7-7---7-7-7-10-7-7---7-7-7-10-7-7---5---5---5-------------|
----------------------------------------------------------------------|

----------------------------------------------------------------------|
----------------------------------------------------------------------|
-----------4---4hm5p4-------7---4-------5---4-------------------------|
---5---7----------------5-----------5-----------5---4---5---7---------|
----------------------------------------------------------------------|
----------------------------------------------------------------------|

----------------------------------------------------------------------|
----------------------------------------------------------------------|
------------------------------------------------7---7---7-------------|
------------------------------------------------7---7---7-------------|
---7-7-7-10-7-7---7-7-7-10-7-7---7-7-7-10-7-7---5---5---5-------------|
----------------------------------------------------------------------|

----------------------------------------------------------------------|
----------------------------------------------------------------------|
------------------------------------------------7---7---7-------------|
------------------------------------------------7---7---7-------------|
---7-7-7-10-7-7---7-7-7-10-7-7---7-7-7-10-7-7---5---5---5-------------|
----------------------------------------------------------------------|

----------------------------------------------------------------------|
----------------------------------------------------------------------|
-----------4---4hm5p4-------7---4-------5---4-------------------------|
---5---7----------------5-----------5-----------5---4---5---7---------|
----------------------------------------------------------------------|
----------------------------------------------------------------------|

----------------------------------------------------------------------|
----------------------------------------------------------------------|
------------------------------------------------7---7---7-------------|
------------------------------------------------7---7---7-------------|
---7-7-7-10-7-7---7-7-7-10-7-7---7-7-7-10-7-7---5---5---5-------------|
----------------------------------------------------------------------|

----------------------------------------------------------------------|
----------------------------------------------------------------------|
------------------------------------------------7---7---7-------------|
------------------------------------------------7---7---7-------------|
---7-7-7-10-7-7---7-7-7-10-7-7---7-7-7-10-7-7---5---5---5-------------|
----------------------------------------------------------------------|
[ Tab from: http://www.guitaretab.com/i/iron-maiden/8828.html ]
---------------------------------------------------------------------|
---------------------------------------------------------------------|
---9---9---4---4---5---5---7---7-------------------------------------|
---9---9---4---4---5---5---7---7-------------------------------------|
---7---7---2---2---3---3---5---5-------------------------------------|
---------------------------------------------------------------------|

----------------------------------------------------------------------|
----------------------------------------------------------------------|
------------------------------------------------7---7---7-------------|
------------------------------------------------7---7---7-------------|
---7-7-7-10-7-7---7-7-7-10-7-7---7-7-7-10-7-7---5---5---5-------------|
----------------------------------------------------------------------|

----------------------------------------------------------------------|
----------------------------------------------------------------------|
------------------------------------------------7---7---7-------------|
------------------------------------------------7---7---7-------------|
---7-7-7-10-7-7---7-7-7-10-7-7---7-7-7-10-7-7---5---5---5-------------|
----------------------------------------------------------------------|

---------------------------------------------------------------------|
---------------------------------------------------------------------|
---9---9---4---4---5---5---7---7-------------------------------------|
---9---9---4---4---5---5---7---7-------------------------------------|
---7---7---2---2---3---3---5---5-------------------------------------|
---------------------------------------------------------------------|

----------------------------------------------------------------------|
----------------------------------------------------------------------|
------------------------------------------------7---7---7-------------|
------------------------------------------------7---7---7-------------|
---7-7-7-10-7-7---7-7-7-10-7-7---7-7-7-10-7-7---5---5---5-------------|
----------------------------------------------------------------------|

----------------------------------------------------------------------|
----------------------------------------------------------------------|
------------------------------------------------7---7---7-------------|
------------------------------------------------7---7---7-------------|
---7-7-7-10-7-7---7-7-7-10-7-7---7-7-7-10-7-7---5---5---5-------------|
----------------------------------------------------------------------|

---------------------------------------------------------------------|
---------------------------------------------------------------------|
---9---9---4---4---5---5---7---7-------------------------------------|
---9---9---4---4---5---5---7---7-------------------------------------|
---7---7---2---2---3---3---5---5-------------------------------------|
---------------------------------------------------------------------|

----------------------------------------------------------------------|
----------------------------------------------------------------------|
-----------9---------------9---------------9-------9---7--------------|
-------9-------9-------9-------9-------9-------9---9---7--------------|
---7---------------7---------------7---------------7---5--------------|
----------------------------------------------------------------------|

----------------------------------------------------------------------|
----------------------------------------------------------------------|
-----------9---------------9---------------9-------9---7--------------|
-------9-------9-------9-------9-------9-------9---9---7--------------|
---7---------------7---------------7---------------7---5--------------|
----------------------------------------------------------------------|

----------------------------------------------------------------------|
----------------------------------------------------------------------|
-----------7---------------7---------------5---------------5----------|
-------7-------7-------7-------7-------5-------5-------5--------------|
---5---------------5---------------3---------------3------------------|
----------------------------------------------------------------------|

----------------------------------------------------------------------|
----------------------------------------------------------------------|
-----------9---------------9---------------9-------9---7--------------|
-------9-------9-------9-------9-------9-------9---9---7--------------|
---7---------------7---------------7---------------7---5--------------|
----------------------------------------------------------------------|

----------------------------------------------------------------------|
----------------------------------------------------------------------|
-----------9---------------9---------------9-------9---7--------------|
-------9-------9-------9-------9-------9-------9---9---7--------------|
---7---------------7---------------7---------------7---5--------------|
----------------------------------------------------------------------|

----------------------------------------------------------------------|
----------------------------------------------------------------------|
-----------9---------------9---------------9-------9---7--------------|
-------9-------9-------9-------9-------9-------9---9---7--------------|
---7---------------7---------------7---------------7---5--------------|
----------------------------------------------------------------------|

----------------------------------------------------------------------|
----------------------------------------------------------------------|
-----------7---------------7---------------5---------------5----------|
-------7-------7-------7-------7-------5-------5-------5--------------|
---5---------------5---------------3---------------3------------------|
----------------------------------------------------------------------|

----------------------------------------------------------------------|
----------------------------------------------------------------------|
-----------9---------------9---------------9-------9---7--------------|
-------9-------9-------9-------9-------9-------9---9---7--------------|
---7---------------7---------------7---------------7---5--------------|
----------------------------------------------------------------------|

----------------------------------------------------------------------|
----------------------------------------------------------------------|
-----------9---------------9---------------9-------9---7--------------|
-------9-------9-------9-------9-------9-------9---9---7--------------|
---7---------------7---------------7---------------7---5--------------|
----------------------------------------------------------------------|

----------------------------------------------------------------------|
----------------------------------------------------------------------|
-----------9---------------9---------------9-------9---7--------------|
-------9-------9-------9-------9-------9-------9---9---7--------------|
---7---------------7---------------7---------------7---5--------------|
----------------------------------------------------------------------|

----------------------------------------------------------------------|
----------------------------------------------------------------------|
-----------9---------------9---------------9-------9---7--------------|
-------9-------9-------9-------9-------9-------9---9---7--------------|
---7---------------7---------------7---------------7---5--------------|
----------------------------------------------------------------------|

----------------------------------------------------------------------|
----------------------------------------------------------------------|
-----------7---------------7---------------5---------------5----------|
-------7-------7-------7-------7-------5-------5-------5--------------|
---5---------------5---------------3---------------3------------------|
----------------------------------------------------------------------|

----------------------------------------------------------------------|
----------------------------------------------------------------------|
-----------9---------------9---------------9-------9---7--------------|
-------9-------9-------9-------9-------9-------9---9---7--------------|
---7---------------7---------------7---------------7---5--------------|
----------------------------------------------------------------------|

----------------------------------------------------------------------|
----------------------------------------------------------------------|
-----------9---------------9---------------9-------9---7--------------|
-------9-------9-------9-------9-------9-------9---9---7--------------|
---7---------------7---------------7---------------7---5--------------|
----------------------------------------------------------------------|

----------------------------------------------------------------------|
----------------------------------------------------------------------|
-----------9---------------9---------------9-------9---7--------------|
-------9-------9-------9-------9-------9-------9---9---7--------------|
---7---------------7---------------7---------------7---5--------------|
----------------------------------------------------------------------|

SOLO


---------------------------------------------------------------------|
---------------------------------------------------------------------|
---9---9---4---4---5---5---7---7-------------------------------------|
---9---9---4---4---5---5---7---7-------------------------------------|
---7---7---2---2---3---3---5---5-------------------------------------|
---------------------------------------------------------------------|

----------------------------------------------------------------------|
----------------------------------------------------------------------|
------------------------------------------------7---7---7-------------|
------------------------------------------------7---7---7-------------|
---7-7-7-10-7-7---7-7-7-10-7-7---7-7-7-10-7-7---5---5---5-------------|
----------------------------------------------------------------------|

----------------------------------------------------------------------|
----------------------------------------------------------------------|
------------------------------------------------7---7---7-------------|
------------------------------------------------7---7---7-------------|
---7-7-7-10-7-7---7-7-7-10-7-7---7-7-7-10-7-7---5---5---5-------------|
----------------------------------------------------------------------|

---------------------------------------------------------------------|
---------------------------------------------------------------------|
---9---9---4---4---5---5---7---7-------------------------------------|
---9---9---4---4---5---5---7---7-------------------------------------|
---7---7---2---2---3---3---5---5-------------------------------------|
---------------------------------------------------------------------|

----------------------------------------------------------------------|
----------------------------------------------------------------------|
------------------------------------------------7---7---7-------------|
------------------------------------------------7---7---7-------------|
---7-7-7-10-7-7---7-7-7-10-7-7---7-7-7-10-7-7---5---5---5-------------|
----------------------------------------------------------------------|

----------------------------------------------------------------------|
----------------------------------------------------------------------|
------------------------------------------------7---7---7-------------|
------------------------------------------------7---7---7-------------|
---7-7-7-10-7-7---7-7-7-10-7-7---7-7-7-10-7-7---5---5---5-------------|
----------------------------------------------------------------------|

----------------------------------------------------------------------|
----------------------------------------------------------------------|
-----------4---4hm5p4-------7---4-------5---4-------------------------|
---5---7----------------5-----------5-----------5---4---5---7---------|
----------------------------------------------------------------------|
----------------------------------------------------------------------|

----------------------------------------------------------------------|
----------------------------------------------------------------------|
------------------------------------------------7---7---7-------------|
------------------------------------------------7---7---7-------------|
---7-7-7-10-7-7---7-7-7-10-7-7---7-7-7-10-7-7---5---5---5-------------|
----------------------------------------------------------------------|

----------------------------------------------------------------------|
----------------------------------------------------------------------|
------------------------------------------------7---7---7-------------|
------------------------------------------------7---7---7-------------|
---7-7-7-10-7-7---7-7-7-10-7-7---7-7-7-10-7-7---5---5---5-------------|
----------------------------------------------------------------------|

----------------------------------------------------------------------|
----------------------------------------------------------------------|
-----------4---4hm5p4-------7---4-------5---4-------------------------|
---5---7----------------5-----------5-----------5---4---5---7---------|
----------------------------------------------------------------------|
----------------------------------------------------------------------|

----------------------------------------------------------------------|
----------------------------------------------------------------------|
------------------------------------------------7---7---7-------------|
------------------------------------------------7---7---7-------------|
---7-7-7-10-7-7---7-7-7-10-7-7---7-7-7-10-7-7---5---5---5-------------|
----------------------------------------------------------------------|

----------------------------------------------------------------------|
----------------------------------------------------------------------|
------------------------------------------------7---7---7-------------|
------------------------------------------------7---7---7-------------|
---7-7-7-10-7-7---7-7-7-10-7-7---7-7-7-10-7-7---5---5---5-------------|
----------------------------------------------------------------------|

---------------------------------------------------------------------|
---------------------------------------------------------------------|
---9---9---4---4---5---5---7---7-------------------------------------|
---9---9---4---4---5---5---7---7-------------------------------------|
---7---7---2---2---3---3---5---5-------------------------------------|
---------------------------------------------------------------------|

----------------------------------------------------------------------|
----------------------------------------------------------------------|
------------------------------------------------7---7---7-------------|
------------------------------------------------7---7---7-------------|
---7-7-7-10-7-7---7-7-7-10-7-7---7-7-7-10-7-7---5---5---5-------------|
----------------------------------------------------------------------|

----------------------------------------------------------------------|
----------------------------------------------------------------------|
------------------------------------------------7---7---7-------------|
------------------------------------------------7---7---7-------------|
---7-7-7-10-7-7---7-7-7-10-7-7---7-7-7-10-7-7---5---5---5-------------|
----------------------------------------------------------------------|

---------------------------------------------------------------------|
---------------------------------------------------------------------|
---9---9---4---4---5---5---7---7-------------------------------------|
---9---9---4---4---5---5---7---7-------------------------------------|
---7---7---2---2---3---3---5---5-------------------------------------|
---------------------------------------------------------------------|
Related for Phantom Of The Opera tab
×
Best way to learn
"Phantom Of The Opera"