Song name
# A B C D E F G H I J K L M N O P Q R S T U V W X Y Z

Iron Maiden - Prowler tab

E |-------------------------------12-15p12----12-15p12---------------------|
B |-----------------------15b(17)----------15----------15b-15b~~-----------|
G |--/-12-12-14-14b(16)----------------------------------------------------|
D |------------------------------------------------------------------------|
A |------------------------------------------------------------------------|
E |------------------------------------------------------------------------|


E |-------------------------------------------------------------------------|
B |----12-15p12-15p12----12-15p12-15p12----12-15p12-15p12----12-15p12-15p12-|
G |-14----------------14----------------14----------------14----------------|
D |-------------------------------------------------------------------------|
A |-------------------------------------------------------------------------|
E |-------------------------------------------------------------------------|

                           ~~~
E |-------------------------------------------------------------------------|
B |-----------15-17-17b(19)----15-17p15-17p15----15-17p15-17p15----15-17p15-|
G |-14--/-16---------------------------------16----------------16-----------|
D |-------------------------------------------------------------------------|
A |-------------------------------------------------------------------------|
E |-------------------------------------------------------------------------|


E |-------------------------------------------------------------------------|
B |-17p15----15-17p15-17p15----15-17p15-17p15----15-17p15-17p15----15-17p15-|
G |-------16----------------16----------------16----------------16----------|
D |-------------------------------------------------------------------------|
A |-------------------------------------------------------------------------|
E |-------------------------------------------------------------------------|


E |----------------------------------------------------------------15-17---|
B |-17p15----15-17p15-17p15----15-17p15-17p15----15-17p15-17p15-17---------|
G |-------16----------------16----------------16---------------------------|
D |------------------------------------------------------------------------|
A |------------------------------------------------------------------------|
E |------------------------------------------------------------------------|

                   ~~~            ~~~             ~~~
E |-18b(19)-18b(20)-19b(21)-19b(22)-21b(23)-21b(24)----22-22-22-22-21-21-21-|
B |----------------------------------------------------20-20----------------|
G |-------------------------------------------------------------------------|
D |-------------------------------------------------------------------------|
A |-------------------------------------------------------------------------|
E |-------------------------------------------------------------------------|

                                        end of solo
E |-19-19-19-17-17-17---15-17b(19)-r-15-------------------------------------|
B |-------------------------------------------------------------------------|
G |-------------------------------------------------------------------------|
D |-------------------------------------------------------------------------|
A |-------------------------------------------------------------------------|
E |-------------------------------------------------------------------------|
Tap to rate this tab
# A B C D E F G H I J K L M N O P Q R S T U V W X Y Z