Guitaretab - guitar tabs
Song name
# A B C D E F G H I J K L M N O P Q R S T U V W X Y Z

Iron Maiden - Strange World tab

STRANGE WORLD

Song:Strange World
Artist:Iron Maiden
Author:Steve Harris
Guitar I:Dave Murray
Duration: 5:32
Alb˙m:Iron Maiden
E-mail:Eldonchava_39@hotmail.com---Kingsa_Monster@yahoo.com
Pedal: 3,75,74.

INTRO:
(00:05)
E||--19-12-19---12-|---12-19-19---12-|-19---12-12---12-|-19-12-19---12---12-12--||
B||-----------12---|-12---------12---|----12------12---|----------12---12-------||
G||----------------|-----------------|-----------------|------------------------||
D||----------------|-----------------|-----------------|------------------------||
A||----------------|-----------------|-----------------|------------------------||
E||----------------|-----------------|-----------------|------------------------||

SOLO I:
(00:42)
E||------------14-15-15/17--15-17-15h14-15h14-----------------------||
B||--17-15-17---------------------------------15--17-17^-17^-15-17--||
G||-----------------------------------------------------------------||
D||-----------------------------------------------------------------||
A||-----------------------------------------------------------------||
E||-----------------------------------------------------------------||

E||----------------------------------------------14-14h15-14--------||
B||-------------15---------12-13-15-12-13-15-15^-------------15-17--||
G||-----12-14^-----14^-14-------------------------------------------||
D||--14-------------------------------------------------------------||
A||-----------------------------------------------------------------||
E||-----------------------------------------------------------------||

E||-----------------------------------------------------------------||
B||------------7h8-7---7h8-10--8h10-8--7h8-7------------------------||
G||----7-9^--9-------9-----------------------9-7--9^-9^-9^-9^--7-9--||
D||--9--------------------------------------------------------------||
A||-----------------------------------------------------------------||
E||-----------------------------------------------------------------||

E||--12-14-15--12-14-15-12-14-15-15/17-14h15----14------------------------||
B||------------------------------------------17----15h17-13-12-13-15-15^--||
G||-----------------------------------------------------------------------||
D||-----------------------------------------------------------------------||
A||-----------------------------------------------------------------------||
E||-----------------------------------------------------------------------||

VERSO I:
(01:27)
E||--7-----7-----7-----7-----|-5-----5-----5-----3-----3---3--||
B||----8-----8-----8-----8---|---7-----7-----7-----5-----5----||
G||------9-----9-----7-----7-|-----7-----7-----7-----5--------||
D||--------------------------|--------------------------------||
A||--------------------------|--------------------------------||
E||--------------------------|--------------------------------||

E||--7-----7-------7--7-----7-|-5-----5-------5--3-----3---3--||
B||----8-----8---8------8---8-|---7-----7---7------5-----5----||
G||------9-----9----------7-7-|-----7-----7----------5--------||
D||---------------------------|-------------------------------||
A||---------------------------|-------------------------------||
E||---------------------------|-------------------------------||

E||--7-----7-------7--7-----7-|-5-----5------3------3--||
B||----8-----8---8------8---8-|---7-----7------5----5--||
G||------9-----9----------9-7-|-----7-----7------5--5--||
D||---------------------------|------------------------||
A||---------------------------|------------------------||
E||---------------------------|------------------------||

E||--7------7--7------7----|-5-----5------3-----3------||
B||----8----8----8------8--|---7-----7------5-----5----||
G||------9--9------7-------|-----7-----7------5-----5--||
D||------------------------|---------------------------||
A||------------------------|---------------------------||
E||------------------------|---------------------------||

E||--7--7-----7------7--7-----7------||
B||--8----8-----8----7----7-----7----||
G||--9------9-----9--9------9-----9--||
D||----------------------------------||
A||----------------------------------||
E||----------------------------------||

PRE-SOLO:
(02:22)
E||--12----19---12-|-12---12-19---12-|-12---12-19---12-|-12----12---19---12--||
B||-----12----12---|---12-------12---|----12------12---|----12----12---12----||
G||----------------|-----------------|-----------------|---------------------||
D||----------------|-----------------|-----------------|---------------------||
A||----------------|-----------------|-----------------|---------------------||
E||----------------|-----------------|-----------------|---------------------||
[ Tab from: http://www.guitaretab.com/i/iron-maiden/8842.html ]
SOLO II:
(02:59)
E||--------------------------15^-15^-15^-15^-15-14-12--------------------||
B||------------12-15^-15--12--------------------------15^--12-15-17^-17--||
G||-----12-14^-----------------------------------------------------------||
D||--14------------------------------------------------------------------||
A||----------------------------------------------------------------------||
E||----------------------------------------------------------------------||

E||--14-15-17^-15-17h15--14h15-14-----------------14h15-14---------------||
B||-------------------------------17-15h17-15-17-----------15-------15^--||
G||-----------------------------------------------------------16-14------||
D||----------------------------------------------------------------------||
A||----------------------------------------------------------------------||
E||----------------------------------------------------------------------||

E||--15-15--------------------------------------14-15-17--19-17-15--17^--||
B||--------15^-15^-----------------------15-17---------------------------||
G||-----------------14^-14^--16^-16--16----------------------------------||
D||----------------------------------------------------------------------||
A||----------------------------------------------------------------------||
E||----------------------------------------------------------------------||

E||--15h17-14h15-14h15-14h15-14--14--------------------------------------||
B||----------------------------17--17-15h17-15h17-15--15-----------------||
G||-------------------------------------------------16--16--12h14-12h14--||
D||----------------------------------------------------------------------||
A||----------------------------------------------------------------------||
E||----------------------------------------------------------------------||

E||-------------------------------------------------12-------15----------||
B||----------------------------------------------12-----15^-----15^------||
G||--14^--12-14-12--11-12-11--------------12-14^--------------------14^--||
D||---------------------------12/14~--14---------------------------------||
A||----------------------------------------------------------------------||
E||----------------------------------------------------------------------||

E||---------------------------------||
B||---------------------------------||
G||--12h14-12-11h12-11-9h11-9h7-9~--||
D||---------------------------------||
A||---------------------------------||
E||---------------------------------||

VERSO II:
(00:05)
E||--7-----7-----7-----7-----|-5-----5-----5-----3-----3---3--||
B||----8-----8-----8-----8---|---7-----7-----7-----5-----5----||
G||------9-----9-----7-----7-|-----7-----7-----7-----5--------||
D||--------------------------|--------------------------------||
A||--------------------------|--------------------------------||
E||--------------------------|--------------------------------||

E||--7-----7-------7--7-----7-|-5-----5-------5--3-----3---3--||
B||----8-----8---8------8---8-|---7-----7---7------5-----5----||
G||------9-----9----------7-7-|-----7-----7----------5--------||
D||---------------------------|-------------------------------||
A||---------------------------|-------------------------------||
E||---------------------------|-------------------------------||

E||--7-----7-------7--7-----7-|-5-----5------3------3--||
B||----8-----8---8------8---8-|---7-----7------5----5--||
G||------9-----9----------9-7-|-----7-----7------5--5--||
D||---------------------------|------------------------||
A||---------------------------|------------------------||
E||---------------------------|------------------------||

E||--7------7--7------7----|-5-----5------3-----3------||
B||----8----8----8------8--|---7-----7------5-----5----||
G||------9--9------7-------|-----7-----7------5-----5--||
D||------------------------|---------------------------||
A||------------------------|---------------------------||
E||------------------------|---------------------------||

E||--7--7-----7------7--7-----7------||
B||--8----8-----8----7----7-----7----||
G||--9------9-----9--9------9-----9--||
D||----------------------------------||
A||----------------------------------||
E||----------------------------------||

FINAL:
(04:39)
E||--12----19---12-|-19---12------12-|-19---12-19---12--||
B||-----12----12---|---12----12-12---|----12------12----||
G||----------------|-----------------|------------------||
D||----------------|-----------------|------------------||
A||----------------|-----------------|------------------||
E||----------------|-----------------|------------------||

E||-------------0-------|--2--||
B||--7------------0-----|--0--||
G||--0--------0-----0---|--0--||
D||--5------4---------4-|--2--||
A||--7----2-------------|--2--||
E||-----0---------------|--0--||

CUALQUIER DUDA REVIZEN MI CORREO Y DEJENME UN MSJ VA
Related for Strange World tab