Guitaretab - guitar tabs
Song name
# A B C D E F G H I J K L M N O P Q R S T U V W X Y Z

Iron Maiden - Where Eagles Dare tab

Iron Maiden  Where Eagles Dare

A Maiden classic! I just love the solo! Contact me at: rattlehead.coolio@hotmail.com

Tablature legend:
PM|-| - Palm mute
~     - vibrato
/     - slide up
\     - slide down
?(?)  - bend (to what is in the brackets)
t     - tremolo (pull arm up)
t~    - tremolo (push in & pull out the bar)
d     - tremolo (divebomb)
h     - hammer-on
p     - pull-off

Intro:
                                          (x4)
e|-------------------------------------------|
B|-------------------------------------------|
G|-------9-9-------7-7-------5-5-------------|
D|-------9-9-------7-7-------5-5-5-5-5-------|
A|-------7-7-------5-5-------3-3-3-3-3-3-2-0-|
E|-0-0-0-----0-0-0-----0-0-0-----------------|
PM|-----|   |-----|   |-----|
                                        (x2)    then:
e|-----------------------------------------|    |--------------|
B|-----------------------------------------|    |--------------|
G|-----------------------------------------|    |--------------|
D|-4-4-------4-4-------5-5-------5-5-------|    |-5-5-5--7-7-7-|
A|-2-2-2-2-2-2-2-2-2-2-3-3-3-3-3-3-3-3-3-3-|    |-3-3-3--5-5-5-|
E|-----------------------------------------|    |--------------|
PM    |-----|   |-----|   |-----|   |-----|
                                          (x2)
e|-------------------------------------------|
B|-------------------------------------------|
G|-------9-9-------7-7-------5-5-------------|
D|-------9-9-------7-7-------5-5-5-5-5-------|
A|-------7-7-------5-5-------3-3-3-3-3-3-2-0-|
E|-0-0-0-----0-0-0-----0-0-0-----------------|
PM|-----|   |-----|   |-----|

Verse I:

e|-------------------------------------------|
B|-------------------------------------------|
G|-------9-9-------7-7-------5-5-------------|
D|-------9-9-------7-7-------5-5-5-5-5-------|
A|-------7-7-------5-5-------3-3-3-3-3-3-2-0-|
E|-0-0-0-----0-0-0-----0-0-0-----------------|
PM|-----|   |-----|   |-----|

e|--------------------------------------|
B|--------------------------------------|
G|--------------------------------------|
D|--------------------------------5-4---|
A|-2-2-2-2-2-2-5-7-7--2-2-2-2-2-2-3-2-5-|
E|-0-0-0-0-0-0-3-5-5--0-0-0-0-0-0-----3-|
PM|-----------|      |-----------|
Repeat verse

Chorus I:

e|--------------------------------------------------------------------------|
B|--------------------------------------------------------------------------|
G|--------------------------------------------------------------------------|
D|-5-5-------5-5-------5-5-------5-7-9--7-7-------7-7-------7-7-------4-5-7-|
A|-3-3-3-3-3-3-3-3-3-3-3-3-3-3-3-3-5-7--5-5-5-5-5-5-5-5-5-5-5-5-5-5-5-2-3-5-|
E|--------------------------------------------------------------------------|
PM    |-----|   |-----|   |-----|          |-----|   |-----|   |-----|

e|----------------------------------------------------------------------|
B|----------------------------------------------------------------------|
G|----------------------------------------------------------------------|
D|-5-5-------5-5-------5-5-------5-7-9--7-7-------7-7-------4-4-4-5-5-7-|
A|-3-3-3-3-3-3-3-3-3-3-3-3-3-3-3-3-5-7--5-5-5-5-5-5-5-5-5-5-2-2-2-3-3-5-|
E|----------------------------------------------------------------------|
PM    |-----|   |-----|   |-----|          |-----|   |-----| 

Verse II (same as verse I)

Chorus II (same as chorus I)

Interlude:

e|----------------------------------------|----------------------------------------|
B|----------------------------------------|----------------------------------------|
G|----------------------------------------|----------------------------------------|
D|-9-9-9-9\-------------9-9-9-7-7-7-7-7-7-|-9-9-9-9\-------------9-9-9-7-7-7-9-9-9-|
A|-7-7-7-7\-------------7-7-7-5-5-5-5-5-5-|-7-7-7-7\-------------7-7-7-5-5-5-7-7-7-|
E|----------0-0-0-0-0---------------------|----------0-0-0-0-0---------------------|
PM         |---------|                              |---------|

e|----------------------------------------|-----------------------------------------|
B|----------------------------------------|-----------------------------------------|
G|----------------------------------------|-----------------------------------------|
D|-7-7-7-7\-------------7-7-7-4-4-4-7-7-7-|-9-9-9-9\--------------9-9-9-7-7-7-7-7-7-|
A|-5-5-5-5\-------------5-5-5-2-2-2-5-5-5-|-7-7-7-7\--------------7-7-7-5-5-5-5-5-5-|
E|----------0-0-0-0-0---------------------|-----------0-0-0-0-0---------------------|
PM         |---------|                               |---------|
Repeat the above (x3)

Solo:

e|------------------------2-3t~~~~-|---------------------------------------------------|
B|---------------------------------|-10(12)-10p8-15(17)-12-18(19)-1522(24)-22(24)~~-\-|
G|-2(4)-----(3)-----(2)------------|---------------------------------------------------|
D|---------------------------------|---------------------------------------------------|
A|---------------------------------|---------------------------------------------------|
E|---------------------------------|---------------------------------------------------|

e|------------------------------------------------------------------------|
B|-17-20p17h20p17h20p17h20p17-15p12h15p12h15p12h15p12-10p8h10p8h10p8h10p8-|
G|------------------------------------------------------------------------|
D|------------------------------------------------------------------------|
A|------------------------------------------------------------------------|
E|------------------------------------------------------------------------|

e|-----------------10(12)~~------|-16(18)---(17)----(16)-\---------------------|
B|-8p7h8p7h8p7h8p7-10(12)~~------|--------------------------10(12)(10)p8-10-8~-|
G|--------------------------9d---|---------------------------------------------|
D|-------------------------------|---------------------------------------------|
A|-------------------------------|---------------------------------------------|
E|-------------------------------|---------------------------------------------|

e|-------------------------------------------------------|-2-3t~~~~-5-7t~~~~-2-3t~~~~-|
B|-/17t~------10t~------8t~-----5t~----------------------|----------------------------|
G|-------12t~------12t~-----9t~-----7t~-4t~-2t~----------|----------------------------|
D|-------------------------------------------------------|----------------------------|
A|-------------------------------------------------------|----------------------------|
E|----------------------------------------------0t~~d~~--|----------------------------|

  Gtr I
e|--------------------------------|--------------------------------|
B|-/12~-10~-8~-7~-------7(8)~~~~--|-/12~-10~-8~-7~-------7(8)~~~~--|
G|----------------9~-7~-----------|----------------9~-7~-----------|
D|--------------------------------|--------------------------------|
A|--------------------------------|--------------------------------|
E|--------------------------------|--------------------------------|
 |Gtr II
e|--------------------------------|--------------------------------|
B|-5~--3~-------------------------|-5~--3~-------------------------|
G|---------4~--2~-----------------|---------4~--2~-----------------|
D|----------------5~-4-5~~~~~~---|----------------5~-4-5~~~~~~---|
A|--------------------------------|--------------------------------|
E|--------------------------------|--------------------------------|

e|-------------------------------------------------|
B|-8-7---------8-7---------8-7---------8-7---------|
G|-----7-9-8-7-----7-9-8-7-----7-9-8-7-----7-9-8-7-|
D|-------------------------------------------------|
A|-------------------------------------------------|
E|-------------------------------------------------|
[ Tab from: http://www.guitaretab.com/i/iron-maiden/8860.html ]
e|---------------------------------------------------------------------|
B|-12-10------------12-10------------12-10------------12-10------------|
G|-------11-12-11-9-------11-12-11-9-------11-12-11-9-------11-12-11-9-|
D|---------------------------------------------------------------------|
A|---------------------------------------------------------------------|
E|---------------------------------------------------------------------|

e|-------------------------------------------------|
B|-8-7---------8-7---------8-7---------8-7---------|
G|-----7-9-8-7-----7-9-8-7-----7-9-8-7-----7-9-8-7-|
D|-------------------------------------------------|
A|-------------------------------------------------|
E|-------------------------------------------------|

e|---------------------------------------------------------------------|
B|-12-10------------12-10------------12-10------------12-10------------|
G|-------11-12-11-9-------11-12-11-9-------11-12-11-9-------11-12-11-9-|
D|---------------------------------------------------------------------|
A|---------------------------------------------------------------------|
E|---------------------------------------------------------------------|

Solo Rhythm:                        
                                   (x10)
e|-------------------------------------|
B|-------------------------------------|
G|-------------------------------------|
D|-2------------------5----------------|
A|-2------------------5----------------|
E|-0------------------3----------------|

Bridge:
                                           (x4)
e|--------------------------------------------|
B|--------------------------------------------|
G|--------------------------------------------|
D|--------------------------------------------|
A|--------------------------------------------|
E|-0--0-3-0-0-0--0-3-0-0-0--0-3-0-0-5-0--3-0-|
PM|------------------------------------------|

                                             (x2)
e|----------------------------------------------|
B|----------------------------------------------|
G|----------------------------------------------|
D|----------------------------------------2-----|
A|----------------------------------0-2-4---4-2-|
E|-2--2-5-2-2-2--2-5-2-2-2--2-5-2-2-------------|
PM|--------------------------------------------|

                                           (x2)
e|--------------------------------------------|
B|--------------------------------------------|
G|--------------------------------------------|
D|--------------------------------------------|
A|--------------------------------------------|
E|-0--0-3-0-0-0--0-3-0-0-0--0-3-0-0-5-0--3-0-|
PM|------------------------------------------|

Intelude:

e|----------------------------------------|----------------------------------------|
B|----------------------------------------|----------------------------------------|
G|----------------------------------------|----------------------------------------|
D|-9-9-9-9\-------------9-9-9-7-7-7-7-7-7-|-9-9-9-9\-------------9-9-9-7-7-7-9-9-9-|
A|-7-7-7-7\-------------7-7-7-5-5-5-5-5-5-|-7-7-7-7\-------------7-7-7-5-5-5-7-7-7-|
E|----------0-0-0-0-0---------------------|----------0-0-0-0-0---------------------|
PM         |---------|                              |---------|

e|----------------------------------------|-----------------------------------------|
B|----------------------------------------|-----------------------------------------|
G|----------------------------------------|-----------------------------------------|
D|-7-7-7-7\-------------7-7-7-4-4-4-7-7-7-|-9-9-9-9\--------------9-9-9-7-7-7-7-7-7-|
A|-5-5-5-5\-------------5-5-5-2-2-2-5-5-5-|-7-7-7-7\--------------7-7-7-5-5-5-5-5-5-|
E|----------0-0-0-0-0---------------------|-----------0-0-0-0-0---------------------|
PM         |---------|                               |---------|
Repeat the above (x3)

On the 3rd time a second guitar plays:
e|----------------------------------------|-----------------------------------------|
B|----------------------------------------|-----------------------------------------|
G|----------------------------------------|-----------------------------------------|
D|-5-5-5-5--------------5-5-5-4-4-4-4-4-4-|-5-5-5-5---------------5-5-5-4-4-4-5-5-5-|
A|----------------------------------------|-----------------------------------------|
E|----------------------------------------|-----------------------------------------|

e|----------------------------------------|-----------------------------------------|
B|----------------------------------------|-----------------------------------------|
G|----------------------------------------|-----------------------------------------|
D|-4-4-4-4--------------4-4-4-0-0-0-4-4-4-|-5-5-5-5---------------5-5-5-4-4-4-4-4-4-|
A|----------------------------------------|-----------------------------------------|
E|----------------------------------------|-----------------------------------------|

On the 4th time a second guitar plays:
e|----------------------------------------|----------------------------------------|
B|----------------------------------------|----------------------------------------|
G|----------------------------------------|----------------------------------------|
D|-9-9-9-9--------------9-9-9-7-7-7-7-7-7-|-9-9-9-9--------------9-9-9-7-7-7-9-9-9-|
A|----------------------------------------|----------------------------------------|
E|----------------------------------------|----------------------------------------|

e|----------------------------------------|-----------------------------------------|
B|----------------------------------------|-----------------------------------------|
G|----------------------------------------|-----------------------------------------|
D|-7-7-7-7--------------7-7-7-4-4-4-7-7-7-|-9-9-9-9---------------9-9-9-7-7-7-7-7-7-|
A|----------------------------------------|-----------------------------------------|
E|----------------------------------------|-----------------------------------------|

Then:
                                          (x4)
e|-------------------------------------------|
B|-------------------------------------------|
G|-------9-9-------7-7-------5-5-------------|
D|-------9-9-------7-7-------5-5-5-5-5-------|
A|-------7-7-------5-5-------3-3-3-3-3-3-2-0-|
E|-0-0-0-----0-0-0-----0-0-0-----------------|
PM|-----|   |-----|   |-----|
                                        (x2)    then:
e|-----------------------------------------|    |--------------|
B|-----------------------------------------|    |--------------|
G|-----------------------------------------|    |--------------|
D|-4-4-------4-4-------5-5-------5-5-------|    |-5-5-5--7-7-7-|
A|-2-2-2-2-2-2-2-2-2-2-3-3-3-3-3-3-3-3-3-3-|    |-3-3-3--5-5-5-|
E|-----------------------------------------|    |--------------|
PM    |-----|   |-----|   |-----|   |-----|

Verse III: (same as Verse I)

Chorus III: (same as Chorus I)

Verse IV: (same as Verse I)

Chorus IV: (same as Chorus I)

Then:
                                          (x4)
e|-------------------------------------------|
B|-------------------------------------------|
G|-------9-9-------7-7-------5-5-------------|
D|-------9-9-------7-7-------5-5-5-5-5-------|
A|-------7-7-------5-5-------3-3-3-3-3-3-2-0-|
E|-0-0-0-----0-0-0-----0-0-0-----------------|
PM|-----|   |-----|   |-----|
                                        (x2)    then:
e|-----------------------------------------|    |---------------------------------------|
B|-----------------------------------------|    |---------------------------------------|
G|-----------------------------------------|    |---------------9-----------------------|
D|-4-4-------4-4-------5-5-------5-5-------|    |-5-5-5--7-7-7-9-----------------------|
A|-2-2-2-2-2-2-2-2-2-2-3-3-3-3-3-3-3-3-3-3-|    |-3-3-3--5-5-5--7-----------------------|
E|-----------------------------------------|    |---------------------------------------|
PM    |-----|   |-----|   |-----|   |-----|

e|----------||
B|----------||
G|-9-9-9-9\-||
D|-9-9-9-9\-||
A|-7-7-7-7\-||
E|----------|| End!

Enjoy!
Related for Where Eagles Dare tab