Song name
# A B C D E F G H I J K L M N O P Q R S T U V W X Y Z

Iron Monkey - Big Loader tab

#----------------------------------PLEASE NOTE---------------------------------#
#This file is the author's own work and represents their interpretation of the #
#song. You may only use this file for private study, scholarship, or research. #
#------------------------------------------------------------------------------#

  Visit MetalTabs.com for more metal tablature

Band:  iron monkey
Album: iron monkey
Song:  big loader

Copyright (c)  EARACHE 1997
Version 1.0 - april 21st (i think)

Transcribed By: king of killing
Email:          scare138@earthlink.net


.  - palm mute           /  - slide up to
\  - slide down to       ~  - vibrato
h  - hammer on           b  - Bend
p  - pull off            Suffixes for bend
t  - tap                 f  - full bend    h - half bend
ph - pinched harmonic    q  - quarter bend t - tap bend
*  - see comment         ^  - Hold bend    r release bend
x  - Stuccatto           ~  - vibrato bend
,  - slight palm mute    () - ghost note, sustained note
"  - tremolo note        <> - Trill

Tunning B G D A E B

|---------------------------------------------------------------------|
|---------------------------------------------------------------------|
|---------------------------------------------------------------------|
|---7/9-9------------6/7-7--------------------------------------------|
|---5/7-7-----9-8-7--4/5-5-----5/7/5--2-------------------------------|
|----------00-7-6-5---------00-3/5/3--0-------------------------------|

|----------------------------------------------------------------------|
|----------------------------------------------------------------------|
|----------------------------------------------------------------------|
|-------------9-----------------------------9--------------------------|
|---2--2-2---7----2--2-2--898----2--2-2---7--2-2--8--7--5--------------|
|---0--0-0--------0--0-0--676----0--0-0------0-0--6--5--3--------------|

|---------------------------------------------------------------------|
|---------------------------------------------------------------------|
|---------------------------------------------------------------------|
|---9-9-9-9------------------------------------12-9-------------------|
|---7-7-7-7-9-12-9--8-9-8--7-7-7-7--7-8-9-12--10-7--------------------|
|-----------7-10-7--6-7-6--5-5-5-5--5-6-7-10--------------------------|
Tap to rate this tab
# A B C D E F G H I J K L M N O P Q R S T U V W X Y Z