Song name
# A B C D E F G H I J K L M N O P Q R S T U V W X Y Z

Iron Monkey - Boss Keloid tab

Band: Iron Monkey
Song: Boss Keloid
Tabbed by: Bam Bam Collins
Tuning: Drop D or C

Riff 1
E/------------------------------------------------------------------|
B/------------------------------------------------------------------|
G/------------------------------------------------------------------|
D/------------------------------------------------------------------|
A/3-3-3-3-4-0-6-0-5-3-3-3-3-4-0-6-0-5-3-3-3-3-4-0-6-0-5-7-7-7-7-7-7-|
D/1-1-1-1-2-0-4-0-3-1-1-1-1-2-0-4-0-3-1-1-1-1-2-0-4-0-3-5-5-5-5-5-5-|

Riff 2
E/--------------------------|
B/--------------------------|
G/--------------------------|
D/--------------------------|
A/--------------------------|
D/1-1-7-1-1-99-99-1-1-7-2-1-|

Riff 3
E/----------------------------------------------------------|
B/----------------------------------------------------------|
G/----------------------------------------------------------|
D/----------------------------------------------------------|
A/4/5-5-5-4/5-5-5-4/5-5-5-6-7-8-4/5-5-5-4/5-5-5-4/5-5-5-5-3-|
D/2/3-3-3-2/3-3-3-2/3-3-3-4-5-6-2/3-3-3-2/3-3-3-2/3-3-3-3-1-|

Riff 4
E/--------------------------|
B/--------------------------|
G/--------------------------|
D/--------------------------|
A/5-0-0-4-0-0-3-0-0-9-9-9-9-|
D/3-0-0-2-0-0-1-0-0-7-7-7-7-|

Riff 5
E/------------------------------|
B/------------------------------|
G/------------------------------|
D/------------------------------|
A/5-5-5-5-5-5-5-5-3-3-3-9-------|
D/3-3-3-3-3-3-3-3-1-1-1-7-7h9-0-|

Order
Riff 1 x 4
Riff 2 x 2
Riff 1 x 2
Riff 2 x 2
Riff 3 x 6
Riff 4 x 8
Riff 3 x 12
Riff 5 x 8
Riff 5 x 1 (Slow!!!!!)

Also may i say jonny morrow R.I.P and if you like iron monkey listen to murder one jonny 
other band.
Tap to rate this tab
# A B C D E F G H I J K L M N O P Q R S T U V W X Y Z