Guitaretab - guitar tabs
Song name
# A B C D E F G H I J K L M N O P Q R S T U V W X Y Z

Iron Savior - Atlantis Falling tab

ATLANTIS FALLING

BY IRON SAVIOR  
FROM IRON SAVIOR ALBUM

TABBED BY ANDREAS ÍHRN

NORMAL TUNING (EADGBE)

INTRO:  X 2
E|-------------------------------------------------------------------------------|
B|-------------------------------------------------------------------------------|
G|-------------------------------------------------------------------------------|
D|---------------------------------------1p0-----0-------------------------------|
A|---5p7---------5p7---------5p7-------------3-1---3-1-0--5p7---------5p7--------|
E|---3p5-5-5-5-5-3p5-5-5-5-5-3p5-5-5-5-5------------------3p5-5-5-5-5-3p5-5-5-5-5|
        | P.M...|   | P.M...|   | P.M...|                    | P.M...|   | P.M...|

E|----------------------|
B|----------------------|
G|----------------------|
D|---------------3------|
A|---5p7---------1-3----|
E|---3p5-5-5-5-5---1----|
        | P.M...|

VERSE:  X 2
E|-------------------------------|
B|-------------------------------|
G|-------------------------------|
D|---5----8----7-----------------|
A|---3----6----5----6----6--8----|
E|------------------4----4--6----|

RIFF:
E|----------------------------------------------------------|
B|----------------------------------------------------------|
G|----------------------------------------------------------|
D|---------------------------------------1p0-----0----------|
A|---5p7---------5p7---------5p7-------------3-1---3-1-0----|
E|---3p5-5-5-5-5-3p5-5-5-5-5-3p5-5-5-5-5--------------------|
        | P.M...|   | P.M...|   | P.M...|

VERSE:
SAME AS ABOVE

BRIDGE:
E|-------------------------------------------------------------------------------|
B|-------------------------------------------------------------------------------|
G|-------------------------------------------------------------------------------|
D|---2p4---------2p4---------2p4---------4p2-5p2-4p2------2p4---------2p4--------|
A|---0p2-2-2-2-2-0p2-2-2-2-2-0p2-2-2-2-2-------------5p2--0p2-2-2-2-2-0p2-2-2-2-2|
E|-------------------------------------------------------------------------------|
        | P.M...|   | P.M...|   | P.M...|                    | P.M...|   | P.M...| 

E|-------------------------------------------------------------------------|
B|-------------------------------------------------------------------------|
G|-------------------------------------------------------------------------|
D|-----4------------2p4---------2p4---------2p4---------4p2-5p2-4p2--------|
A|---------4-5-4----0p2-2-2-2-2-0p2-2-2-2-2-0p2-2-2-2-2-------------5p2----|
E|---2---2-------5---------------------------------------------------------|
                       | P.M...|   | P.M...|   | P.M...|

E|--------------------------------------|
B|--------------------------------------|
G|--------------------------------------|
D|---2p4---------2p4---------4--2--5----|
A|---0p2-2-2-2-2-0p2-2-2-2-2-2--0--3----|
E|--------------------------------------|
        | P.M...|   | P.M...|

CHORUS:
E|----------------------------------------------------------------|
B|----------------------------------------------------------------|
G|----------------------------------------------------------------|
D|---2----5---------7-------2----5---------7-------2-1------------|
A|---0----3----3----5--5----0----3----3----5--5--2-----3-2-3-2~---|
E|-------------1-------3--------------1-------3-------------------|

RIFF:
E|-------------------------------------------------------------------------------|
B|-------------------------------------------------------------------------------|
G|-------------------------------------------------------------------------------|
D|---------------------------------------1p0-----0-------------------------------|
A|---5p7---------5p7---------5p7-------------3-1---3-1-0--5p7---------5p7--------|
E|---3p5-5-5-5-5-3p5-5-5-5-5-3p5-5-5-5-5------------------3p5-5-5-5-5-3p5-5-5-5-5|
        | P.M...|   | P.M...|   | P.M...|                    | P.M...|   | P.M...|

E|----------------------|
B|----------------------|
G|----------------------|
D|---------------3------|
A|---5p7---------1-3----|
E|---3p5-5-5-5-5---1----|
        | P.M...|

VERSE:
SAME AS ABOVE

BRIDGE:
SAME AS ABOVE

CHORUS:
SAME AS ABOVE

BRIDGE:
E|---------------------------------|
B|----   PLAY THIS PART TWICE   ---|  
G|---------------------------------|
D|---7----5--7----7--7----3--3--5--|
A|---5----3--5----5--5----1--1--3--|
E|---------------------------------|

THEN THIS TWICE
E|-------------------------------------------------------------------------------|
B|-------------------------------------------------------------------------------|
G|-------------------------------------------------------------------------------|
D|-------------------------------------------------------------------------------|
A|---5-5-5-5-5-5-5-5-5-5-5-5-5-5-5-5-5-5-5-5-5-5-5-5-5-5-5-5-5-5-5-5-5-5-5-5-5-5-|
E|-------------------------------------------------------------------------------|
    | P.M........................................................................

E| ---------------------------------------------------------|
B|----------------------------------------------------------|
G|----------------------------------------------------------|
D|----------------------------------------------------------|
A|---5-5-5-5-5-5-5-5-5-5-1-1-1-1-1-1-1-1-3-3-3-3-3-3-3-3----|
E|----------------------------------------------------------|
   ......................................................|

SOLO:

E|-------------------------------------------------------------------------------|
B|---10~-10-12-13-12-10-12-13-12-10-12----b----------10~-10-12-13-12-10-12-13-12-|
G|-------------------------------------10-12(13)-12~-----------------------------|
D|-------------------------------------------------------------------------------|
A|-------------------------------------------------------------------------------|
E|-------------------------------------------------------------------------------|
[ Tab from: http://www.guitaretab.com/i/iron-savior/46042.html ]
E|------------------------------b------------------------------------------------|
B|---10-12--------b---------10-10-(12)~-10~-10-12-13-12-10-12-13-12-10-12-----b--|
G|---------10-12-12-(13)-12-----------------------------------------------10-12--|
D|-------------------------------------------------------------------------------|
A|-------------------------------------------------------------------------------|
E|-------------------------------------------------------------------------------|

E|------------13p15-13-12-------------------------13-12~----------b--------------|
B|------------------------15-13--------------------------------17(18)-15~-15-14--|
G|---(13)-12~-------------------14-12-12-14-12-14--------11-14-------------------|
D|-------------------------------------------------------------------------------|
A|-------------------------------------------------------------------------------|
E|-------------------------------------------------------------------------------|

E|----------------------------------------------------------------b--------------|
B|---12-14-12--------------------9-9-10-10-------9-9-10-10-12-12-12(14)-12-10-9--|
G|------------14-12-10-9-9-11-11-----------11-11--------------------------------9|
D|-------------------------------------------------------------------------------|
A|-------------------------------------------------------------------------------|
E|-------------------------------------------------------------------------------|

E|-----------------b-------------------------------------------------------------|
B|-------------17(18)-15~-15-14-12-14-12--------------------------9-9-10-10------|
G|-------11------------------------------14-12-10-11-11-9-9-11-11-----------11-11|
D|---11~----11-------------------------------------------------------------------|
A|-------------------------------------------------------------------------------|
E|-------------------------------------------------------------------------------|

E|-------------------------------|-----------------------------------------------|
B|---9-9-10-10-12~-12-9-10-9-10~-|-----------------------------------------------|
G|-------------------------------|-------------------------------------------7---|
D|-------------------------------|-7p9-9-9-9-9-9-9-7p9-9-9-9-9-9-9-7p9-9-9-9---7-|
A|-------------------------------|-----------------------------------------------|
E|-------------------------------|-----------------------------------------------|

E|-------------------------------------------------------------------------------|
B|------b---------------------------------7p10p12~-7p10p12~-9p10p12-9-------12p10|
G|------9(10)-(10)-(10)-(10)-(10)-(10)-9~-----------------------------10---------|
D|---9~------------------------------------------------------------------9~------|
A|-------------------------------------------------------------------------------|
E|-------------------------------------------------------------------------------|

E|-----------------------b-------------------------------------------------------|
B|---p9-12p10p9-12p10p9-13(15)~-12-10-9------------------------------------------|
G|--------------------------------------11-9-------9~-9-11-12-11~-11-12-14-12~-12|
D|-------------------------------------------12-9~-------------------------------|
A|-------------------------------------------------------------------------------|
E|-------------------------------------------------------------------------------|

E|-------------------------------------------7-7~-8-7----------------------------|
B|----------b-------------------------7-8-10----------10-8-7-8-------------------|
G|---14-16-16(17)~-9-9-9-9-9-9-7~-7-9--------------------------9-7---------------|
D|-----------------------------------------------------------------10-9-7--------|
A|------------------------------------------------------------------------10~----|
E|-------------------------------------------------------------------------------|

E|-------------------------------------------------------------------------------|
B|-------------------------------------------------------------------------------|
G|-------------------------------------------------------------------------------|
D|------------------------------5--7--9------7--9--------7--9------4--------4----|
A|---7--3--5--7--3--5--7--3--5--3--5--7---4--5--7--4--4--5--7--7---2--5--4--2--4-|
E|---5--1--3--5--1--3--5--1--3------------2--------2--2--------5------3--2-----2-|

E|---------------------------------------------------------|
B|---------------------------------------------------------|
G|---------------------------------------------------------|
D|---------4--------4---9--7--5--9--9--7-------------------|
A|---5--4--2--5--4--2---7--5--3--7--7--5--7--9--9-9-9-9----|
E|---3--2-----3--2------------------------5--7--7-7-7-7----|

RIFF:
SAME AS INTRO

BRIDGE:
SAME AS FIRST BRIDGE

CHORUS:  ( 2 GUITARS )                       b              b
E|------------------------------------------12(13)-11-9----15(16)-14-13-11-------|
B|------------------------------------------------------11~----------------14-11~|
G|-------------------------------------------------------------------------------|
D|---2--5-----7-------2--5-----7-------2--5-----------------7--------------------|
A|---0--3--3--5--5----0--3--3--5--5----0--3--3--------------5------------5-------|
E|---------1-----3----------1-----3----------1---------------------------3-------|
                            
            b              b
E|---------12(13)-11-9----15(16)-14-13-11--------------|
B|---------------------11~----------------14-11~-------|
G|-----------------------------------------------------|
D|---2--5------------------7---------------------------|
A|---0--3--3---------------5------------5---------2----|
E|---------1----------------------------3---------0----|    LET FINAL E RING

OUTRO:  (ONLY ONE GUITAR WHILE THE OTHER ONE RINGS OUT THE FINAL E)
E|-----------------------------------------------------------------|
B|-----------------------------------------------------------------|
G|-----------------------------------------------------------------|
D|---9--7--9--7--9----9--7--9--7--9----9--7--9--7--9---------------|
A|---7--5--7--5--7----7--5--7--5--7----7--5--7--5--7----7--5--7----|
E|------------------------------------------------------5--3--5----|
Related for Atlantis Falling tab