Guitaretab - guitar tabs
Song name
# A B C D E F G H I J K L M N O P Q R S T U V W X Y Z

Iron Savior - Deadly Sleep tab

DEADLY SLEEP

FROM UNIFICATION ALBUM 
BY IRON SAVIOR

TABBED BY ANDREAS ÍHRN

NORMAL TUNING (EBGDAE)

INTRO:
RIFF A    GUITAR 1
E|---7-0-0-7-0-0-9-0-10-0-0-7-0-0-9-0-10-0-9-0-0-7-0-0-5-0-0-7-0-0-9-0-0----| P
B|--------------------------------------------------------------------------| L
G|--------------------------------------------------------------------------| A
D|--------------------------------------------------------------------------| Y
A|--------------------------------------------------------------------------|
E|--------------------------------------------------------------------------| T
                                                                              H
E|---7-0-0-7-0-0-9-0-10-0-0-7-0-0-9-0-10-0-9-0-0-7-0-0-12-0-0-10-0-0-9-0-0--| I
B|--------------------------------------------------------------------------| S
G|--------------------------------------------------------------------------|
D|--------------------------------------------------------------------------| X
A|--------------------------------------------------------------------------| 
E|--------------------------------------------------------------------------| 3

THEN
E|---7-0-0-7-0-0-9-0-10-0-0-7-0-0-9-0-10-0-9-0-0-7-0-0-5-0-0-7-0-0-9-0-0----|
B|--------------------------------------------------------------------------|
G|--------------------------------------------------------------------------|
D|--------------------------------------------------------------------------|
A|--------------------------------------------------------------------------|
E|--------------------------------------------------------------------------|

E|---7-0-0-7-0-0-9-0-10-0-0-7-0-0-9-0-10-0-9-0-0-7-0-0-5----|
B|----------------------------------------------------------|
G|----------------------------------------------------------|
D|----------------------------------------------------------|
A|----------------------------------------------------------|
E|----------------------------------------------------------|

RIFF B  X 4
GUITAR 2
E|------------------------------------------------------|
B|------------------------------------------------------|
G|------------------------------------------------------|
D|---7-4---------2-4------------------------------------|
A|---5-2-2-2-2-2-0-2-2-2-2-2-5-5---------7-7-5-4-2-0----|
E|---------------------------3-3-3-3-3-3-5-5------------|

GUITAR 3
E|--------------------------------------|
B|--------------------------------------|
G|---7-4~--2-4~--------------7-6-4------|
D|---------------4-5~--5-7~--------7----|
A|--------------------------------------|
E|--------------------------------------|

GUITAR 1  RIFF A X 2
GUITAR 2  RIFF B X 4

VERSE:  X 2
GUITAR 1
E|-----------------------------------------------------------------------|
B|-----------------------------------------------------------------------|
G|-----------------------------------------------------------------------|
D|---------------------------------------------------------------5--7----|
A|---------------------------------------------------------------3--5----|
E|---0-0-0-0-0-0-0-0-0-0-0-0-0-0-0-0-0-0-0-0-0-0-0-0-0-0-X LOTS ---------|

GUITAR 2
E|--------------------------------------------------|
B|--------------------------------------------------|
G|---------2-------------------------2------5--7----|
D|---2-4-5---5-4-5-4-2-4-2-----2-4-5---5-2--3--5----|
A|-------------------------5~-----------------------|
E|--------------------------------------------------|

BRIDGE:
E|----- X 10 ---------|--------------------------------------------------------|
B|--------------------|--------------------------------------------------------|
G|---------7----------|--------------5-------5-8-7-5-------7-8-7-5---------5~--|
D|---5-7-8---8-7-5----|--8-7-5-5-7-8---8-7-5---------8-7-----------8-7-5-7-----|
A|--------------------|--------------------------------------------------------|
E|--------------------|--------------------------------------------------------|

CHORUS:  X 2
E|-----------------------------|
B|-----------------------------|
G|-----------------------------|
D|---5--------2--------2-------|
A|---3--5--2----3-2----0--5----|
E|------3--0--------3-----3----|

RIFF A X 2
RIFF B X 4

VERSE:
SAME AS ABOVE

BRIDGE:
SAME AS ABOVE

CHORUS:
SAME AS ABOVE
[ Tab from: http://www.guitaretab.com/i/iron-savior/46043.html ]
SOLO:
E|-----------------------------------------------------------------------------|
B|---15~----15~----15~----15~----13~----13-15-13-10~--11-10-8-10-8-------------|
G|-----------------------------------------------------------------10-9-7-10-9-|
D|-----------------------------------------------------------------------------|
A|-----------------------------------------------------------------------------|
E|-----------------------------------------------------------------------------|
                                       b       b     
E|---------------------------------10-12(13)~-12(13)-12-10----10-12-12------10-|
B|-----------------------8-10-8-11-------------------------13------------------|
G|---7-9-7--------7-9-10--------------------------------------------9-9-9-9-7-7|
D|---------10-9-7--------------------------------------------------------------|
A|-----------------------------------------------------------------------------|
E|-----------------------------------------------------------------------------|

E|-------12------13----------12------13----------15----------13----------15----|
B|-----------------------------------------------------------------------------|
G|---7-7-9-9-9-9-10-10-10-10-9-9-9-9-10-10-10-10-12-12-12-12-10-10-10-10-12-12-|
D|-----------------------------------------------------------------------------|
A|-----------------------------------------------------------------------------|
E|-----------------------------------------------------------------------------|

E|---------17~----17-18-17-15-------------15~----|
B|----------------------------18-17-15-17--------|
G|---12-12-13~-----------------------------------|
D|-----------------------------------------------|
A|-----------------------------------------------|
E|-----------------------------------------------|

BRIDGE:
E|----------------------------------------------------------------|
B|----------------------------------------------------------------|
G|----------------------------------------------------------------|
D|-----------------------------------------------------------2----|
A|-----4---------------4---------------4---------------------0----|
E|---0-2-2-2-2-2-2-2-3-2-2-2-2-2-2-2-0-2-2-2-2-2-2-2-3-2-0-2------|
        | P.M.......|   | P.M.......|   | P.M.......|

E|----------------------------------------------------------------------|
B|----------------------------------------------------------------------|
G|----------------------------------------------------------------------|
D|----------------------------------------------------------------------|
A|-----4---------------4---------------4-------------2-3-2-0-2-0--------|
E|---0-2-2-2-2-2-2-2-3-2-2-2-2-2-2-2-0-2-2-2-2-2-2-2-------------3-2----|
        | P.M.......|   | P.M.......|   | P.M.......|

E|----------------------------------------------------------------|
B|----------------------------------------------------------------|
G|----------------------------------------------------------------|
D|-----------------------------------------------------------4----|
A|-----6---------------6---------------6---------------------2----|
E|---2-4-4-4-4-4-4-4-5-4-4-4-4-4-4-4-2-4-4-4-4-4-4-4-5-4-2-4------|
        | P.M.......|   | P.M.......|   | P.M.......|

E|----------------------------------------------------------------------|
B|----------------------------------------------------------------------|
G|----------------------------------------------------------------------|
D|----------------------------------------------------------------------|
A|-----6---------------6---------------6-------------4-5-4-2-4-2--------|
E|---2-4-4-4-4-4-4-4-5-4-4-4-4-4-4-4-2-4-4-4-4-4-4-4-------------5-4----|
        | P.M.......|   | P.M.......|   | P.M.......|

SOLO
( I DON┤T KNOW THIS ONE )

CHORUS:
E|---------------------------------------------------------------|
B|---------------------------------------------------------------|
G|---------------------------------------------------------------|
D|---2-----5-----7--2-----4-------4--2--7--2-----4-------4--2----|
A|---0--3--3--5--5--0--4----5-4---2--0--5--0--4----5-4---2--0----|
E|------1-----3--------2--------5-------------2--------5---------|

RIFF:  X 2
E|------------------------------------------------------|
B|------------------------------------------------------|
G|------------------------------------------------------|
D|-----4-----------4------------------------------------|
A|---0-2-2-2-2-2-0-2-2-2-2-2-5-5---------7-7-5-4-2-0----|
E|---------------------------3-3-3-3-3-3-5-5------------|

RIFF:

GUITAR 1  X 4
E|---9-0-0-9-0-0-11-0-12-0-0-9-0-0-11-0-12-0-11-0-9-0-0-7-0-0-9-0-0-11-0-0----|
B|----------------------------------------------------------------------------|
G|----------------------------------------------------------------------------|
D|----------------------------------------------------------------------------|
A|----------------------------------------------------------------------------|
E|----------------------------------------------------------------------------|

E|---9-0-0-9-0-0-11-0-12-0-0-9-0-0-11-0-12-0-11-0-9-0-0-14-0-0-12-0-0-11-0-0----|
B|------------------------------------------------------------------------------|
G|------------------------------------------------------------------------------|
D|------------------------------------------------------------------------------|
A|------------------------------------------------------------------------------|
E|------------------------------------------------------------------------------|

GUITAR 2  X 8
E|----------------------------------------------------|
B|----------------------------------------------------|
G|----------------------------------------------------|
D|---6-----------6---------2-2---------4-4------------|
A|---4-4-4-4-4-2-4-4-4-4-4-0-0-0-0-0-0-2-2-7-5-4------|
E|-----------------------------------------------7----|
      | P.M...|   | P.M...|   | P.M...|

OUTRO:
E|--------------------|
B|--------------------|
G|--------------------|
D|---4-----9--8--6----|
A|---2--6--7--6--4----|
E|------4-------------|
Related for Deadly Sleep tab