Song name
# A B C D E F G H I J K L M N O P Q R S T U V W X Y Z

Iron Wine - Flightless Bird American Mouth tab

-------------------------------------------------------------------------------
			     Flightless Bird, American Mouth - Iron & Wine
-------------------------------------------------------------------------------
Tabbed by: Andrei
Email: kmart42@gmail.com

Tuning: Standard
Capo: 3rd Fret

I was a quick wet boy, diving too deep for coins
All of your street light eyes wide on my plastic toys
Then when the cops closed the fair, I cut my long baby hair
Stole me a dog-eared map and called for you everywhere

Have I found you
Flightless bird, jealous, weeping or lost you, american mouth
Big pill looming


e|----------------------------------------------------------------------------|
B|----1-1-----1-1-----1-1-----1-1-------1-1------1-1-----1-1------1-1---------|
G|----0-0-----0-0-----0-0-----0-0-------2-2------2-2-----2-2------2-2---------|
D|----------2----------------------------------2------------------------------|
A|--3---------------3-------2---------0---------------0-----------------------|
E|--------------------------------------------------------------0-------------|

e|----------------------------------------------------------------------------|
B|----1-1-----1-1-----1-1-----1-1-------0-0------0-0-----0-0------------------|
G|----2-2-----2-2-----2-2-----2-2-------0-0------0-0-----0-0------------------|
D|----------------------------------------------------------------------------|
A|----------3---------------3-----------------0h2-----------------0-2---------|
E|--1---------------1-----------------3---------------3---------3-------------|

Now I'm a fat house cat
Nursing my sore blunt tongue
Watching the warm poison rats curl through the wide fence cracks
Pissing on magazine photos
Those fishing lures thrown in the cold
And clean blood of Christ mountain stream

D=Strum Down
U=Strum Up

    D D U D D D U D  D D U D D D U D
~ C Chords
e|--0-0-0-0-0-0-0-0--0-0-0-0-0-0-0-0-----------------------------------------|
B|--1-1-1-1-1-1-1-1--1-1-1-1-1-1-1-1-----------------------------------------|
G|--0-0-0-0-0-0-0-0--0-0-0-0-0-0-0-0-----------------------------------------|
D|--2-2-2-2-2-2-2-2--2-2-2-2-2-2-2-2-----------------------------------------|
A|--3-3-3-3-3-3-3-3--3-3-3-3-3-3-3-3-----------------------------------------|
E|---------------------------------------------------------------------------|

Do The Same Strumming For The Same Amount Of Time For These Chords As Well

   Am   F   G
e|--0---1---3----------------------------------------------------------------|
B|--1---1---0----------------------------------------------------------------|
G|--2---2---0----------------------------------------------------------------|
D|--2---3---0----------------------------------------------------------------|
A|--0---3---2----------------------------------------------------------------|
E|------1---3----------------------------------------------------------------|

Have I found you
Flightless bird, grounded, bleeding or lost you, american mouth
Big pill stuck going down

e|--8---8---8---8-----5---5---5---5-----5---5---5---5-----7---7----|
B|---8---8---8---8-----5---5---5---5-----6---6---6---6-----8---8---|
G|----9---9---9---9-----5---5---5---5-----5---5---5---5-----7---7--|
D|-----------------------------------------------------------------|
A|-----------------------------------------------------------------|
E|-----------------------------------------------------------------|

e|--5/7------10-8-7--|
B|------8------------|
G|--------7----------|
D|-------------------|
A|-------------------|
E|-------------------|

Enjoy!! This Is My First Tab Please Vote! This is 100% Correct!

| /  slide up
| \  slide down
| h  hammer-on
| p  pull-off
| ~  vibrato
| +  harmonic
| x  Mute note
===============================================================================
Tap to rate this tab
# A B C D E F G H I J K L M N O P Q R S T U V W X Y Z