Guitaretab - guitar tabs
Song name
# A B C D E F G H I J K L M N O P Q R S T U V W X Y Z

Ironfire - Final Crusade tab

Iron Fire - The Final Crusade
In The Album Thunderstorm        
                           INTRO
                          Repeat 3 times
eb)|---------------------------------------------------------------|
Bb)|---------------------------------------------------------------|
Gb)|---------------------------------------------------------------|
Db)|-5----8--------------------------------------------------------|
Ab)|-3----6--8-----------------------------------------------------|
Eb)|---------6-----------------------------------------------------|
                          Repeat once
eb)|---------------------------------------------------------------|
Bb)|----------------------8--9-6-8---------------------------------|
Gb)|-5--5--8---8-7-5---5-------------------------------------------|
Db)|---5-----8--------5--------------------------------------------|
Ab)|---------------------------------------------------------------|
Eb)|---------------------------------------------------------------|
                          Repeat 3 Times
eb)|-8-------------------8-----------------------------------------|
Bb)|---8-9-6-----8-9-6-----8-9-6---9--11-9-8-9-8-8-6---------------|
Gb)|-----------8-------------------------------------8-6-----------|
Db)|---------------------------------------------------------------|
Ab)|---------------------------------------------------------------|
Eb)|---------------------------------------------------------------|
[ Tab from: http://www.guitaretab.com/i/ironfire/77383.html ]
Related for Final Crusade tab
Advertisement will be closed in 10 seconds