Song name
# A B C D E F G H I J K L M N O P Q R S T U V W X Y Z

Irtaash - Tu Nahin tab

Now "tu nahin" is basically played on the piano and theres no guitar involved in the 
or whatsoever...
but i tabbed this piano part on guitar...lol what do i mean? omg


well, the intro is like this...and by the way, stretch your hand out at the 
what i would suggest....

This part is in the C

e---------------------------|
b---------------------------|
G------------------7--------|
D-----------5-------------5-|
A----3----------------------|
E---------------------------|


e---------------------------|
b---------------------------|
G------------------7--------|
D-----------5-------------5-|
A----3----------------------|
E---------------------------|


e---------------------------|
b---------------------------|
G------------------7--------|
D-----------5-------------5-|
A----3----------------------|
E---------------------------|


e---------------------------|
b---------------------------|
G------------------7--------|
D-----------5-------------5-|
A----3----------------------|
E---------------------------|

Play this 4x (4x - 4 times)
and then,


This part goes out in the B

e---------------------------|
b---------------------------|
G-------------4-------------|
D----2----------------------|
A----2---------------2------|
E---------------------------|

e---------------------------|
b---------------------------|
G-------------4-------------|
D----2----------------------|
A----2---------------2------|
E---------------------------|

e---------------------------|
b---------------------------|
G-------------4-------------|
D----2----------------------|
A----2---------------2------|
E---------------------------|

e---------------------------|
b---------------------------|
G-------------4-------------|
D----2----------------------|
A----2---------------2------|
E---------------------------|

Play this one 4x as well... (4x - 4 times)

The whole song goes out on these two parts...except for the " kya hai jo ye pal portion 
& the solo part which i still have'nt figured out yet....so let me know if you guys have 
exact tabs of these :)
thanks...

hashem khan
hashimkhaan@hotmail.com
Tap to rate this tab
# A B C D E F G H I J K L M N O P Q R S T U V W X Y Z