Song name
# A B C D E F G H I J K L M N O P Q R S T U V W X Y Z

Irtaash - Khauf tab

K H A U F *
************************************


NOTE :- Chords for the beginning part of the song

Bm(add11) - [ 0 2 4 4 3 0 ]
A(add9) - [ 5 7 7 6 0 0 ]
G6 - [ 3 5 5 4 0 0 ]


Bm
A
G

INTRO:-

e-----------------0---|----------------0-----|-----------------0--------|---------------0----|-------0-----------------|
B-----------------3---|----------------3-----|-----------------3--------|---------------3----|-------------3-----------|
G---------4-------4---|---------4------4-----|-----------4-----4--------|---------4-----4----|--------------------4----|
D---------------------|----------------------|--------------------------|--------------------|-------------------------|
A----2----------------|----0-----------------|--------------------------|----0---------------|-------------------------|
E---------------------|----------------------|------3-------------------|--------------------|-------------------------|

e-----------------0---|----------------0-----|-----------------0--------|--------------------2s3s2---------|
B-----------------3---|----------------3-----|-----------------3--------|---------------3-------------3----|
G---------4-------4---|---------4------4-----|-----------4-----4--------|---------4-----------------------4|
D---------------------|----------------------|--------------------------|----------------------------------|
A----2----------------|----0-----------------|--------------------------|----0-----------------------------|
E---------------------|----------------------|------3-------------------|----------------------------------|


Play it twice n ...start with the lyrics ...
e-----------------0-----------0--------|---------------------0----------0--------|---------------------0--------0--------|--------------------0-------0----------|
B-----------3--------3-----------3-----|-------------3----------3----------3-----|-------------3----------3--------3-----|-------------3---------3--------3------|
G-------4-----4---------4---------4----|---------4------4----------4--------4----|----------4-----4---------4-------4----|---------4------4-------4--------4-----|
D--------------------------------------|---------------------------------------- |---------------------------------------|---------------------------------------|
A---2----------------------------------|-----0-----------------------------------|---------------------------------------|-----0---------------------------------|
E--------------------------------------|-----------------------------------------|----3----------------------------------|---------------------------------------|


tere ... aur mere

raaton ke andhere

dhalte sooraj

dhalte savere


hum dono ke ......

ke khauf ke basere


(strumming ...................)
yeiiiii ...iiiiiiiiiiiiiii


e-----------------0-----------0--------|---------------------0----------0--------|---------------------0--------0--------|--------------------0-------0----------|
B-----------3--------3-----------3-----|-------------3----------3----------3-----|-------------3----------3--------3-----|-------------3---------3--------3------|
G-------4-----4---------4---------4----|---------4------4----------4--------4----|----------4-----4---------4-------4----|---------4------4-------4--------4-----|
D--------------------------------------|---------------------------------------- |---------------------------------------|---------------------------------------|
A---2----------------------------------|-----0-----------------------------------|---------------------------------------|-----0---------------------------------|
E--------------------------------------|-----------------------------------------|----3----------------------------------|---------------------------------------|


socho ... ki mera

ek anjaana sa chehra

is tanhai ee ... mein

.... kitna gehra


dil ki inn raahon mein


.... mann meraa

(STRUMMING)
yeeiiiii ....iiiiiiiiiiiiiiiii

(HEAVY STRUMS with DISTORTION)
Bm---------------
jo bole chahe ...
A-------------------
maang le mujhse
G---------------
jeeta hoon iss ......
A------------
khauf mein

-----Bm------------
abb jalne laga hoonn
A-------------------
jalne laga hoonn
G--------------------A---------------
marne laga hoon iss khauf mein ...

Bm-------------A--------------G----------A-----

hooooooooooooooo
Submitted by: Saad Memon
Contact saad_memon666@hotmail.com
Tap to rate this tab
# A B C D E F G H I J K L M N O P Q R S T U V W X Y Z