Song name
# A B C D E F G H I J K L M N O P Q R S T U V W X Y Z

Irving - Turn Of The Century tab

Help us improve GuitareTab! Take a short survey!
-----------------------------------------------------------------------
                  Irving - Turn of the Century 
-----------------------------------------------------------------------
Album: Good Morning Beautiful
Tabbed By Josh Cortes (banjoplayer123)(or joshcortes@gmail.com)
Standard Tuning

Solo(also main audible guitar riff):

e|---------0-----------0-------------------------0-----|
B|-----------3-0---------3-0---0-1-0---0-1-0---3-------|
G|-0---0-0-------2---2-----------------------------2---|
D|-----------------------------------------------------|  (play twice)
A|-----------------------------------------------------|
E|-----------------------------------------------------|

At the end play again once and then play this:

e|---------0-----------0---------------------|
B|-----------3-0---------3-0---0-1-0---0-1-0-|
G|-0---0-0-------2---2-----------------------|
D|-------------------------------------------|  
A|-------------------------------------------|
E|-------------------------------------------|

    (play this part really quickly)
e|-----------------------------------------------3(let ring)-|
B|-1p0-0-1p0-0-1p0-0-1p0-0-1p0-0-1p0-0-1p0-0--3--------------|
G|-----------------------------------------------------------|
D|-----------------------------------------------------------|
A|-----------------------------------------------------------|
E|-----------------------------------------------------------|

The main chorus is just a bunch of chords that you can barely hear,
and the intro is the same as the solo just played really lightly.

Send me a message or e-mail me if you have any feedback, comments or questions. enjoy! 

Related for Turn Of The Century tab