Guitaretab - guitar tabs
Song name
# A B C D E F G H I J K L M N O P Q R S T U V W X Y Z

Irwansyah - Pecinta Wanita tab

Ost My Hearth - Pecinta Wanita Tab by Irwansyah

  Gm                  Dm                    Gm           Dm
E-----------------------------------------------------------------------------|
B-----------------------------------------------------------------------------|
G---------7--5-------------------7-5---/10----------7-5-----------------------|
D-----5-8-------7---5--------5-8----------------5-8------7-7------------------|
A-5-6-----------------8--5-6----------------5-6-------------------------------|
E-----------------------------------------------------------------------------|

G5              D5         D5                G5
KU TEMUKAN DALAM PENCARIAN CINTA SEJATI UNTUK HIDUPKU
C5                G5          D#5           D5
KURANG LEBIH YANG SEPERTI DIA KUHARAP DALAM CINTAKU

KU TAK MAU MENJANJIKANNYA PASTI BAHAGIA BILA DENGAN KU
BIAR DIA RASAKN SENDIRI BETAPA GILA CINTAKU
[ Tab from: http://www.guitaretab.com/i/irwansyah/79715.html ]
REFF:
    Cm                  F                   A#
AKU MEMANG PENCINTA WANITA NAMUN KU BUKAN BUAYA

D#                Cm
YANG SETIA PADA SERIBU GADIS

D                  Gm
KU HANYA MENCINTAI DIA


SOLO 2:37
E-6--8-8-8-6-8-8-8--5-6--3-3--------6--8-8-8-6-8-8-8--5-6--3-3--|I
B-6--8-8-8-6-8-8-8--5-6--3-3--------6--8-8-8-6-8-8-8--5-6--3-3--|I
G---------------------------------------------------------------|I
D---------------------------------------------------------------|I
A---------------------------------------------------------------|I
E---------------------------------------------------------------|I

E-11/13-1311/13-13---10-11-11-10-11---5-6-6-5-5-6-6--5-6-11-5--|I
B-11/13-13-11/13-13---10-11-11-10-11---5-6-6-5-5-6-6--5-6-11-5--------|I
G---------------------------------------------------------------------|I
D---------------------------------------------------------------------|I
A---------------------------------------------------------------------|I
E---------------------------------------------------------------------|I
Related for Pecinta Wanita tab