Song name
# A B C D E F G H I J K L M N O P Q R S T U V W X Y Z

Isaak Chris - Wrong To Love You tab

Help us improve GuitareTab! Take a short survey!
1e--------------------------------------------------|
2b------3----3--------2----2--------3----3-----2~~--|
3g--------1----1--------0----0--------1----1---0~~--|
4d---------------------------------------------0~~--|
5a-----------------0--------------------------------|
6e---0---------------------------0------------------|(x3)


1e-----------------------------|---------------------|
2b------3----3--------2----2---|-----3----3-----2~~--|
3g--------1----1--------0----0-|-------1----1---0~~--|
4d-----------------------------|----------------0~~--|
5a-----------------0-----------|---------------------|
6e---0---------------------(x8)|--0------------------|

repeat first part
Related for Wrong To Love You tab