Song name
# A B C D E F G H I J K L M N O P Q R S T U V W X Y Z

Isengard - Storm Of Evil tab

The viking themed song "Storm of Evil" from the Vinterskugge album. 

If anybody can tab the key-board riff, it would be great!


e|-------------------------------------------|
h|-------------------------------------------|
g|-------------------------------------------|
d|--7-7-7-7-6-7-7-7-9-9\+-+-+-+-+-9-+-+-+-+--|
a|--5-5-5-5-4-5-5-5-7-7\8-8-8-8-8-7-8-8-8-8--|
E|-------------------------------------------|


e|-----------------------------------|
h|-----------------------------------|
g|-----------------------------------|
d|--9-9-9-9-+-+-+-+-9-9-9-9-8-8-8-8--|
a|--7-7-7-7-8-8-8-8-7-7-7-7-6-6-6-6--|
E|-----------------------------------|


e|-----------------------------------|
h|-----------------------------------|
g|-----------------------------------|
d|-----------------------------------|
a|--2222-3-2-4-2-5-2-6---------------|
E|--0000-1-0-2-0-3-0-4---------------|


e|-----------------------------------|
h|-----------------------------------|
g|-----------------------------------|
d|-----------------------------------|
a|--222-5-7-5-3-33-222-5-7-5-3-3-----|
E|--000-3-5-3-1-11-000-3-5-3-1-1-----|


Tap to rate this tab
# A B C D E F G H I J K L M N O P Q R S T U V W X Y Z