Song name
# A B C D E F G H I J K L M N O P Q R S T U V W X Y Z

Isis - Backlit tab

Help us improve GuitareTab! Take a short survey!
Great song, great album, great band. I used a live video of the song
to help me figure out some bits, so the majority of it should be 
correct. I'm not entirely sure about the part where the vocals come in,
but I know its those chords. I'll post the rest of the song soon when 
I can work it out. 

Guitar I - Aaron Turner
Guitar II - Michael Gallagher

0:00
|-----------------------|
|-8--------7------------|
|-------------------9---|  X2
|-----------------------| 
|-----------------------|
|-----------------------|

0:16
|-----------------------|
|-8--------7------------|
|-------------------9---|
|-----------------------|
|-----------------------|
|-----------------------|
|                       |     X2   
|                       |
|-----------------------|
|---8------7------------|
|-7---7-------------9---|
|-----------------------|
|-----------------------|
|-----------------------|

0:32
|-----------------------|
|---8---8--7------------| 
|-----------------7-9---|
|-0--0------------------|
|-----------------------|
|-----------------------|
|                       |    X3
|                       |
|-----------------------|
|-------8--7------------|
|-7-----------------9---|
|-----------------------|
|-----------------------|
|-----------------------|

0:56
|------------------------------|
|---8---8-7--7---------10b-10b-| 
|----------------9b-9b---------|
|-0---0----0--0----------------|
|------------------------------|
|------------------------------|
|                              |  
|                              |
|------------------------------|
|---8---8-7--7---------10b-10b-| 
|-7---7----7--7--9b-9b---------|
|------------------------------|
|------------------------------|
|------------------------------|

1:28
|---------------------------------------|
|---8---8-7--7---------1010101010101010-| 
|----------------9b-9b------------------|
|-0---0----0--0-------------------------|
|---------------------------------------|
|---------------------------------------|
|                                       |  
|                                       |
|---------------------------------------|
|---8---8-7--7--------------------------| 
|-7---7----7--7--9b-9b-22222222---------|
|---------------------------------------|
|---------------------------------------|
|---------------------------------------|

1:35
|---------------------------------------|
|---------------------------------------|
|---------------------------------------|
|-0-5-0-5--(5)--(5)--0-5-0-4--(4)--(4)--|
|-0-5-0-5--(5)--(5)--0-5-0-4--(4)--(4)--|
|-0-5-0-5--(5)--(5)--0-5-0-4--(4)--(4)--|
|                                       |    X2  
|                                       |
|---------------------------------------|
|---------------------------------------|
|---------------------------------------|
|-0-5-0-5--(5)--(5)--0-5-0-4--(4)--(4)--|
|-0-5-0-5--(5)--(5)--0-5-0-4--(4)--(4)--|
|-0-5-0-5--(5)--(5)--0-5-0-4--(4)--(4)--|

Related for Backlit tab