Song name
# A B C D E F G H I J K L M N O P Q R S T U V W X Y Z

Islands - Renaud Bucky Little Wing tab

keep plucking the a string for a while then:

|--------------|
|------7/10----|
|--6/9---------|
|--------------|
|-0-0-0-0-0-0-0|
|--------------|  thats the intro


then the main part is:
|--------------------------------------|
|-5-------5----------------------------|
|---6-4-6---6-4-6-2-4-2-4-2-4-2-4-2-4--|
|--------------------------------------|
|0-0-0-0-0-0-0-0-0-0-0-0-0-0-0-0-0-0-0-|
|--------------------------------------|


then the part wear its with a chord is just:

------------------------------|
-------2---2--(let ring)------|
-------2---2------------------|
-------2---2------------------|
-0-0-0---0---0----------------|
------------------------------|
Tap to rate this tab
# A B C D E F G H I J K L M N O P Q R S T U V W X Y Z