Song name
# A B C D E F G H I J K L M N O P Q R S T U V W X Y Z

Isle Of Q - Raindance tab

----------------------------------------------------------------------------
                        Raindance-Isle of Q
----------------------------------------------------------------------------
Tabbed By: Acidproofbrick
 Tuning: Standard 

INTRO/Chorus:
e:--------4-4--------------------------------------------------------------:
B:--------5-5--------------------------------------------------------------:
G:--------4-4----2-2---4-4-------------------------------------------------:
D:-4-4----6-6----2-2---4-4-------------------------------------------------:
A:-4-4----4-4----2-2---2-2-------------------------------------------------:
E:-2-2---------------------------------------------------------------------: 

Verse:
e:-------------------------------------------------------------------------:
B:-------------------------------------------------------------------------:
G:-------------------------------------------------------------------------:
D:--4-4----6-6----7-6----7-7----9-9----------------------------------------:
A:--4-4----6-6----7-6----7-7----9-9----------------------------------------:
E:--2-2----4-4----5-4----5-5----7-7----------------------------------------:

Pre-chorus:
e:---------------------------------------0---------------------------------:
B:---------------------------------------4---------------------------------:
G:----------9---------------------9-9-7--3---------------------------------:
D:--12-11-9-9---12-11-9----12-9-9-9-9-7--2---------------------------------:
A:--12-11-9-7---12-11-9----12-9-9-7-7-5--3---------------------------------:
E:--10-9--7-----10-9--7----10-7-7------------------------------------------:
Tap to rate this tab
# A B C D E F G H I J K L M N O P Q R S T U V W X Y Z