Song name
# A B C D E F G H I J K L M N O P Q R S T U V W X Y Z

Isle Of Q - Say Good Bye tab

----------------------------------------------------------------------------
			     Say Good Bye - Isle of Q
----------------------------------------------------------------------------
Tabbed by:Acidproofbrick

Tuning:Standard 

e|--------3----------------------|
B|--------3----------------------|
G|--------0------2~-----3------2~|
D|--------0------2~-----3------2~|x4
A|--------2--0-0-0--1-1-1--0-0-0-|
E|----3-3-3----------------------|

| /  slide up
| \  slide down
| h  hammer-on
| p  pull-off
| ~  vibrato
| +  harmonic
| x  Mute note
===============================================================================
Tap to rate this tab
# A B C D E F G H I J K L M N O P Q R S T U V W X Y Z