Song name
# A B C D E F G H I J K L M N O P Q R S T U V W X Y Z

It Dies Today - The Bacchanal Affair tab

this is an awesome song so somebody should totally tab the rest of it.
the bend is down and then up.


|-------------------------------------------------------------------------------------|
|-------------------------------------------------------------------------------------|
|-------------------------------------------------------------------------------------|
|---------------------------------3---------------------------------------------------|
|-5-0-0-0-000-5-0-0-0-3-0-0-0-5/3---0-0-0-0--5-0-0-0-000-5-0-0-0-3-0-0-0-5-3-0----3-5-|
|---0-0-0-000---0-0-0---0-0-0-------0-0-0-0----0-0-0-000---0-0-0---0-0-0-------6b-----|
pm  . . . ...   . . .   . . .       . . . .    . . . ...   . . .   . . .

|--------------------------------------------------------------------------------------|
|--------------------------------------------------------------------------------------|
|--------------------------------------------------------------------------------------|
|---------------------------------3----------------------------------------------------|
|-5-0-0-0-000-5-0-0-0-3-0-0-0-5/3----0-0-0-0--5-0-0-0-000-5-0-0-0-3-0-0-0-5-3-0----3-5-|
|---0-0-0-000---0-0-0---0-0-0--------0-0-0-0----0-0-0-000---0-0-0---0-0-0-------6b-----|
pm  . . . ...   . . .   . . .        . . . .    . . . ...   . . .   . . .

|--------------|
|--------------|
|--------------|
|--------------|
|-5-3-0----3-5-|
|-------6b-----|
Tap to rate this tab
# A B C D E F G H I J K L M N O P Q R S T U V W X Y Z