Song name
# A B C D E F G H I J K L M N O P Q R S T U V W X Y Z

It Dies Today - My Promise tab

Title:  My Promise
Artist: It Dies Today 
Album:  The Caitiff Choir (Limited Edition)

Instrument: Guitar

Tabbed by: Brandon Yates (BYates04@yahoo.com)
Forum :    ThisFireBurns22

Tuning: 1 Step Down ( C G C F A D)

The 1st track off of the Re-released "Caitliff Choir" album.  It is a revised 
version of theguitarmanX's tab on UG. I found that the tabs were close, but a 
little off. This tab is 99% right.  Enjoy! And please rate. : )

-----------------------
|        Key          |
-----------------------
*    - pinch harmonic |
pm . - palm mute      |
/    - Slide          |
X/// - pick scratch   |
~    - Let note ring  |
-----------------------


Intro (0:03 - 0:21)
Both Guitars
D|-------------------------------------------------------------|
A|-------------------------------------------------------------|
F|-------------------------------------------------------------|
C|-------------------------------------------------------------|
G|-000000-000000-000-00-00--00-----000000-000000-000-00-00--00-|
C|-000000-000000-000-00-00--00-3*--000000-000000-000-00-00--00-|
PM ...... ...... ... .. ..  ..     ...... ...... ... .. ..  ..

Cont'd
D|--------------------------------|
A|--------------------------------|
F|--------------------------------|
C|----------------------------0~~-|
G|-000000-000000-000-00-00-00-0~~-|
C|-000000-000000-000-00-00-00-0~~-|
PM ...... ...... ... .. .. ..

Verse (0:22 - 0:47)
Both Guitars
D|-------------------------------------------------------------------|
A|-------------------------------------------------------------------|
F|-------------------------------------------------------------------|
C|-////---1----1---1/4------------------------------4---3---7-7/10-4-|
G|-////---1-00-1-0-1/4-00-4---0-6---0-5-----8---000-4-0-3-0-7-7/10-4-| 4 x
C|-////---1-00-1-0-1/4-00---5-0---3-0---8-5---4-000-4-0-3-0-7-7/10-4-|
PM            ..         ..     .     .           ...   .   .

Chorus (0:48 - 1:11)
Both Guitars on the first 2 times
D|-------------|--------------------------------------------|
A|-------------|--------------------------------------------|
F|-------------|-----7---8-8-----7---8---1111-----7---8---8-|
C|-0-3-1-0-6-2-|-----x---x-x-----x---x---x-x------x---x---x-| 
G|-0-3-1-0-6-2-|-----5---6-6-----5---6---9-9------5---6---6-|
C|-0-3-1-0-6-2-|-000---0-----000---0---0------000---0---0---|
PM .     .       ...   .     ...   .   .      ...   .   .

Guitar 2 plays this on the third and fourth time (1:02 - 1:11)
D|-------------------------------------------|
A|-------------------------------------------|
F|-----4---5-5-----4---5---8-8-----2---5---5-|
C|-----x---x-x-----x---x---x-x-----x---x---x-|
G|-----2---3-3-----2---3---6-6-----2---3---3-|
C|-000---0-----000---0---0-----000---0---0---|    
PM ...   .     ...   .   .     ...   .   .

Both Guitars (1:11 - 1:12)
D|-------------||
A|-------------||
F|-------------||
C|-0-3-1-0-6-2-||
G|-0-3-1-0-6-2-||
C|-0-3-1-0-6-2-||
 
Bridge A (1:13 - 1:24)
Guitar 1
D|--------------------------------------------------------------------|
A|--------------------------------------------------------------------|
F|-------/10~------10101010101010101010101010101010101010101010101010-|
C|-0~----/x~~------x-x-x-x-x-x-x-x-x-x-x-x-x-x-x-x-x-x-x-x-x-x-x-x-x--|
G|-0~----/8~~------8-8-8-8-8-8-8-8-8-8-8-8-8-8-8-8-8-8-8-8-8-8-8-8-8--|
C|-0~-----------------------------------------------------------------|

Guitar 2
D|-------------------------------------------------------------------|
A|-------------------------------------------------------------------|
F|----------------/777777777-666666666666666666666666666666666666666-|
C|-0~-------------/xxxxxxxxx-xxxxxxxxxxxxxxxxxxxxxxxxxxxxxxxxxxxxxxx-|
G|-0~-------------/555555555-444444444444444444444444444444444444444-|
C|-0~----------------------------------------------------------------|

Bridge B (1:25 - 1:45) 
Guitar 1
D|-----------------------------------------------------------------------|
A|-----------------------------------------------------------------------|
F|---------------------------------------------------------------7-7-8-8-|
C|-----------------------------44-33-----------------------------x-x-x-x-|
G|-0---0---0---0-------0---0---44-44-0---0---0---0-------0---0---5-5-6-6-|
C|-0-0-0-0-0-0-0-0-000-0-0-0-0-44-33-0-0-0-0-0-0-0-0-000-0-0-0-0---------|
PM   .   .   .   . ...   .   .         .   .   .   . ...   .   .

D|---------------------------------------------------------------------|
A|---------------------------------------------------------------------|
F|---------------------------------------------------------------------|
C|-----------------------------44-33-----------------------------4-1-0-|
G|-0---0---0---0-------0---0---44-44-0---0---0---0-------0---0---4-1-0-|
C|-0-0-0-0-0-0-0-0-000-0-0-0-0-44-33-0-0-0-0-0-0-0-0-000-0-0-0-0-4-1-0-|
PM   .   .   .   . ...   .   .         .   .   .   . ...   .   .

Guitar 2
D|-----------------------------------------------------------------------|
A|-----------------------------------------------------------------------|
F|---------------------------------------------------------------4-4-5-5-|
C|-----------------------------44-33-----------------------------x-x-x-x-|
G|-0---0---0---0-------0---0---44-44-0---0---0---0-------0---0---2-2-3-3-|
C|-0-0-0-0-0-0-0-0-000-0-0-0-0-44-33-0-0-0-0-0-0-0-0-000-0-0-0-0---------|
PM   .   .   .   . ...   .   .         .   .   .   . ...   .   .

D|---------------------------------------------------------------------|
A|---------------------------------------------------------------------|
F|---------------------------------------------------------------------|
C|-----------------------------44-33-----------------------------4-1-0-|
G|-0---0---0---0-------0---0---44-44-0---0---0---0-------0---0---4-1-0-|
C|-0-0-0-0-0-0-0-0-000-0-0-0-0-44-33-0-0-0-0-0-0-0-0-000-0-0-0-0-4-1-0-|
PM   .   .   .   . ...   .   .         .   .   .   . ...   .   .

Bridge C (1:46 - 2:06)
D|------------------------|
A|------------------------|
F|------------------------|
C|------------------4-1-0-|
G|-1-1--1-1-1-1-1---4-1-0-| 4x
C|-0-0--0-0-0-0-0---4-1-0-|
PM . .  . . . . .

Bridge D (2:07 - 2:29)
Guitar 1 and 2 switch the open 0s, starting with left guitar
D|--------------------------------------------------------|
A|--------------------------------------------------------|
F|--------------------------------------------------------|
C|--------------------------------------------------------|
G|-3-1-0-4-3-1--------------3-1-0-3-1-0-4-3-1-------------|
C|-3-1-0-4-3-1-0-0-0-0-0-0--3-1-0-3-1-0-4-3-1-0-0-0-0-0-0-|
PM . . . . . .              . . . . . . . . .
D|---------------------------------------------------------------|
A|---------------------------------------------------------------|
F|---------------------------------------------------------------|
C|---------------------------------------------------------------|
G|-3-1-0--------------3-1-0-4-3-1--------------3-1-0-------------|
C|-3-1-0-0-0-0-0-0-0--3-1-0-4-3-1-0-0-0-0-0-0--3-1-0-0-0-0-0-0-0-|
PM . . .              . . . . . .              . . .

D|--------------------------------------------------------|
A|--------------------------------------------------------|
F|--------------------------------------------------------|
C|--------------------------------------------------------|
G|-3-1-0-3-1-0-4-3-1--------------3-1-0-4-3-1-------------|
C|-3-1-0-3-1-0-4-3-1-0-0-0-0-0-0--3-1-0-4-3-1-0-0-0-0-0-0-|
PM . . . . . . . . .              . . . . . .

D|--------------------------------------------|
A|--------------------------------------------|
F|--------------------------------------------|
C|--------------------(palm-slower-at-the-end)|
G|-3-1-0--------------3-1-0-3-1-0-3-1-0-4-3-1-|
C|-3-1-0-0-0-0-0-0-0--3-1-0-3-1-0-3-1-0-4-3-1-|
PM . . .              . . . . . . . . . . . .

Breakdown (2:30 - 3:02)
(The end breakdown is pretty complicated time-wise.  I tabbed this with
 extra spaces to give you a better idea of what is going on and how you 
 should go about playing the riff.  If this isn't right, I must be deaf.
 I found it was best to break it into sections as so...)

D|---------|---------------------------------|-----||
A|---------|---------------------------------|-----||
F|---------|---------------------------------|-----||
C|---------|---------------------------------|-----||
G|---------|---------------------------------|-0-0-||
C|-0-0-000-|-000-0-0-0-0-0-0-000-0-0-0-0-000-|-0-0-||
pm . . ...   ... . . . . . . ... . . . . ...   . .
   
D|-------------------|--------------||
A|-------------------|--------------||
F|-------------------|--------------||
C|-------------------|--------------|| *Restart immediately*
G|-------------------|--------------||      Play 3 Times
C|-0-0--000-0--0-000-|-0-00-000-000-||
pm . .  ... .  . ...   . .. ... ...

D|---------||
A|---------||
F|---------||
C|---------||
G|---------||
C|-0-0-000-||
pm . . ...


That's it. Killer tune, huh?

Tap to rate this tab
# A B C D E F G H I J K L M N O P Q R S T U V W X Y Z