Song name
# A B C D E F G H I J K L M N O P Q R S T U V W X Y Z

It Dies Today - Severed Ties Yield Severed Heads tab

Verse:
Guitar 1
|-------------------------------------|
|-------------------------------------|
|-------------------------------------|
|-------------------------------------|
|-----10-----8-----12-----10-----8-10-|
|-0-0----0-0---0-0----0-0----0-0------|
(Palm mute the top string)

|-------------------------------------|
|-------------------------------------|
|-------------------------------------|
|-------------------------------------|
|-----10-----8-----12-----10-----8-10-|
|-8-8----8-8---8-8----8-8----8-8------|
(Palm mute the top string)

|-----------------------------------------------|
|-----------------------------------------------|
|-----------------------------------------------|
|-----------------------------------------------|
|-------10-------8-------12-------10-------8-10-|
|-10-10----10-10---10-10----10-10----10-10------|
(Palm mute the top string)

|--------------------------------------------|
|--------------------------------------------|
|--------------------------------------------|
|--------------------------------------------|
|-----7---7h8-----7---7h8-----5---5h7-222222-|
|-5-5---5-----5-5---5-----3-3---3-----222222-|
(Palm mute the top string until "222222")

Guitar 2
|---------------------------------|
|---------------------------------|
|---------------------------------|
|---------------------------------|
|-----7-----5-----8-----7-----5-7-|
|-0-0---0-0---0-0---0-0---0-0-----|
(Palm mute the top string)

|---------------------------------|
|---------------------------------|
|---------------------------------|
|---------------------------------|
|-----7-----5-----8-----7-----5-7-|
|-8-8---8-8---8-8---8-8---8-8-----|
(Palm mute the top string)

|-------------------------------------------|
|-------------------------------------------|
|-------------------------------------------|
|-------------------------------------------|
|-------7-------5-------8-------7-------5-7-|
|-10-10---10-10---10-10---10-10---10-10-----|
(Palm mute the top string)

|--------------------------------------------|
|--------------------------------------------|
|--------------------------------------------|
|-----5---5h7-----5---5h7-----3---3h5--------|
|-------------------------------------222222-|
|-5-5---5-----5-5---5-----3-3---3-----222222-|
(Palm mute the top string until "222222")

Chorus:
|------------------------------------------------------------------------------|
|------------------------------------------------------------------------------|
|-------------------------------------------------------77777777-10101010-9999-|
|--------------------------------------9999999999999999------------------------|
|--00000000-77777777-88888888-77777777-7777777777777777-55555555-8-8-8-8--7777-|
|--00000000-77777777-88888888-77777777-----------------------------------------|

Verse 2 is the same, except for the end which goes
"lament.."
Guitar 1
|---------------------------------------------------|
|---------------------------------------------------|
|---------------------------------------------------|
|---------------------------------7---8h10----------|
|-----7---10h12-----7---10h12--------------10101010-|
|-5-5---5-------5-5---5-------8-8---8------10101010-|
(Palm mute the top string until "10101010")

Guitar 2
|-------------------------------------------------|
|-------------------------------------------------|
|-------------------------------------------------|
|-------------------------------------------------|
|-----5---7h8-----7---7h8-----10---10h12-10101010-|
|-5-5---5-----5-5---5-----8-8----8-------10101010-|
(Palm mute the top string until "10101010")

Bridge:
|------------------------------------------------------|
|------------------------------------------------------|
|------------------------------------------------------|
|----------------------0-7---0-7---0-7-0-7---0-7---0-7-|
|-8---10-12-5-55555555-----0-----0---------0-----0-----|
|-8---------5-55555555---------------------------------|
(Palm mute the "0's" on the second string)

Run through the chorus again, but the second time through play
Chorus:
|------------------------------------------------------------------------------|
|------------------------------------------------------------------------------|
|-------------------------------------------------------77777777---------------|
|--------------------------------------9999999999999999------------------------|
|--00000000-77777777-88888888-77777777-7777777777777777-55555555-3333-2222-----|
|--00000000-77777777-88888888-77777777---------------------------3333-2222-----|

It's hard to really tab this, just listen to the song to figure it out
Breakdown:
|----------------------|
|----------------------|
|----------------------|
|----------------------|
|-00--00--00-00-00--00-|
|-00--00--00-00-00--00-|
PM......................
|----------------------------------------------------------------------------------------------|
|----------------------------------------------------------------------------------------------|
|----------------------------------------------------------------------------------------------|
|----------------------------------------------------------------------------------------------|
|-000-00-0-0-000-0000-0000-000-00-0-0-000-0-0-0000-0000-7-7--777-7-7-7-0000-0000-5-5-555-5-5-5-|
|-000-00-0-0-000-0000-0000-000-00-0-0-000-0-0-0000-0000-7-7--777-7-7-7-0000-0000-5-5-555-5-5-5-|
PM..............................................................................................

Now play the chorus three more times.
Outro:
Guitar 2
|------|
|------|
|------|
|------|
|-7----|
|-5----|
(let ring)

Guitar 1
|-------------|
|-------------|
|-------------|
|-----10/7----|
|-8/5---------|
|-------------|
Tap to rate this tab
# A B C D E F G H I J K L M N O P Q R S T U V W X Y Z