Song name
# A B C D E F G H I J K L M N O P Q R S T U V W X Y Z

It Dies Today - Naenia tab

It Dies Today - Naenia Guitar Tab
Tabbed By James Paiva
Email: drkl5@hotmail.com

I Pretty Much Tabbed The Whole Song Myself, Both Rhythm And Lead, And What A Great Song
Is =). I Know I Kind of Got Lazy With The Tuning. But I Believe It Is Easy To Play This
In Drop C#. Feel Free To Fix Up Any Mistakes. Contact My Email If You Need Any Questions 
Anything.

Tuning: C# G# C# F# A# D#


Intro
[0:00]

Both Guitars
D#|--------------------------------------|--------------------------------|
A#|--------------------------------------|--------------------------------|
F#|--------------------------------------|--------------------------------|
C#|--4--4-------------4--4----x-x--x-x---|--0--0-------------2--2---2/14\-|
G#|--4--4-------------4--4----x-x--x-x---|--0--0-------------2--2---2/14\-|
C#|--4--4-------------4--4----x-x--x-x---|--0--0-------------2--2---2/14\-|

Intro Part 2
[0:07]

Guitar 1
D#|--------------------------------------|-----------------------------------------|
A#|--------------------------------------|-----------------------------------------|
F#|--------------------------------------|-----------------------------------------|
C#|--4--4-6h7-6---6---4--4-6h7-7h9-6h7h6-|--0--0-6-0---0--------2--2-2-4-2-2-2h4h2-|x2
G#|--4--4-------9---7-4--4---------------|--0--0---0-7-0-5h7h5--2--2-2---2-2-------|
C#|--4--4-------------4--4---------------|--0--0---0---0--------2--2-2---2-2-------|
                                                   .   .             .   . .
Guitar 2
D#|--------------------------------------|-----------------------------------------|
A#|--------------------------------------|-----------------------------------------|
F#|-------4h6-4---4--------4h6-6/7-4h6h4-|-------4---------------------------------|
C#|--4--4-------7---6-4--4---------------|--0--0---0-6-0-4h6h4--2--2-2-4-2-2-2h4h2-|x2
G#|--4--4-------------4--4---------------|--0--0---0---0--------2--2-2---2-2-------|
C#|--4--4-------------4--4---------------|--0--0---0---0--------2--2-2---2-2-------|
                                                   .   .             .   . .


Verse
[0:22]

Both Guitars
D#|--------------------------------------------------------------------------------------------------|
A#|--------------------------------------------------------------------------------------------------|
F#|--------------------------------------------------------------------------------------------------|
C#|--4-4-4-4-4-4-4-4-4-4-4-4-4-4-4-4-4-6-6-6-6-2-2-2-0-0-0-0-0-0-0-0-0-0-0-0-2-2-2-2-2-2-2-2-2-2-2-2-|x2
G#|--4-4-4-4-4-4-4-4-4-4-4-4-4-4-4-4-4-6-6-6-6-2-2-2-0-0-0-0-0-0-0-0-0-0-0-0-2-2-2-2-2-2-2-2-2-2-2-2-|
C#|--4-4-4-4-4-4-4-4-4-4-4-4-4-4-4-4-4-6-6-6-6-2-2-2-0-0-0-0-0-0-0-0-0-0-0-0-2-2-2-2-2-2-2-2-2-2-2-2-|
     . . . . . . . . . . . . . . . . . . . . . . . . . . . . . . . . . . . . . . . . . . 
. . . .


Pre-Chorus
[0:37]

Guitar 1
D#|--------------------------------------|-----------------------------------------|
A#|--------------------------------------|-----------------------------------------|
F#|--------------------------------------|-----------------------------------------|
C#|--4--4-6h7-6---6---4--4-6h7-7h9-6h7h6-|--0--0-6-0---0--------2--2-2-4-2-2-2h4h2-|x2
G#|--4--4-------9---7-4--4---------------|--0--0---0-7-0-5h7h5--2--2-2---2-2-------|
C#|--4--4-------------4--4---------------|--0--0---0---0--------2--2-2---2-2-------|
                                                   .   .             .   . .
Guitar 2
D#|--------------------------------------|-----------------------------------------|
A#|--------------------------------------|-----------------------------------------|
F#|-------4h6-4---4--------4h6-6/7-4h6h4-|-------4---------------------------------|
C#|--4--4-------7---6-4--4---------------|--0--0---0-6-0-4h6h4--2--2-2-4-2-2-2h4h2-|
G#|--4--4-------------4--4---------------|--0--0---0---0--------2--2-2---2-2-------|
C#|--4--4-------------4--4---------------|--0--0---0---0--------2--2-2---2-2-------|
                                                   .   .             .   . .


Chorus
[0:44]

Guitar 1
D#|--------------------------------------------------------------------------------------------------|
A#|--------------------------------------------------------------------------------------------------|
F#|--------------------------------------------------------------------------------------------------|
C#|--4-4-4-4-4-4-4-4-4-4-4-4-4-4-4-4-4-4-4-4-4-4-4-4-0-0-0-0-0-0-0-0-0-0-0-0-2-2-2-2-2-2-2-2-2-2-2-2-|
G#|--4-4-4-4-4-4-4-4-4-4-4-4-4-4-4-4-4-4-4-4-4-4-4-4-0-0-0-0-0-0-0-0-0-0-0-0-2-2-2-2-2-2-2-2-2-2-2-2-|
C#|--4-4-4-4-4-4-4-4-4-4-4-4-4-4-4-4-4-4-4-4-4-4-4-4-0-0-0-0-0-0-0-0-0-0-0-0-2-2-2-2-2-2-2-2-2-2-2-2-|

D#|--------------------------------------------------------------------------------------------------|
A#|--------------------------------------------------------------------------------------------------|
F#|--------------------------------------------------------------------------------------------------|
C#|--4-4-4-4-4-4-4-4-4-4-4-4-4-4-4-4-4-4-4-4-4-4-4-4-7-7-7-7-7-7-7-7-7-7-7-7-2-2-2-2-2-2-2-2-2-2-2-2-|
G#|--4-4-4-4-4-4-4-4-4-4-4-4-4-4-4-4-4-4-4-4-4-4-4-4-7-7-7-7-7-7-7-7-7-7-7-7-2-2-2-2-2-2-2-2-2-2-2-2-|
C#|--4-4-4-4-4-4-4-4-4-4-4-4-4-4-4-4-4-4-4-4-4-4-4-4-7-7-7-7-7-7-7-7-7-7-7-7-2-2-2-2-2-2-2-2-2-2-2-2-|

D#|--------------------------------------------------------------------------------------------------|
A#|--------------------------------------------------------------------------------------------------|
F#|--------------------------------------------------------------------------------------------------|
C#|--0----------------------2------------------------4-----------------------------------7-----------|
G#|--0----------------------2------------------------4-----------------------------------7-----------|
C#|--0----------------------2------------------------4-----------------------------------7-----------|

D#|-------------------------------------------------|
A#|-------------------------------------------------|
F#|-------------------------------------------------|
C#|--0----------------------2-----------------------|
G#|--0----------------------2-----------------------|
C#|--0----------------------2-----------------------|

Guitar 2
D#|--------------------------------------------------------------------------|
A#|--------------------------------------------------------------------------|
F#|--18-18-18-18-18-18-16-16-16-16-16-16-14-14-14-14-14-14-13-13-14-14-13-13-|
C#|--------------------------------------------------------------------------|x3
G#|--16-16-16-16-16-16-14-14-14-14-14-14-12-12-12-12-12-12-11-11-12-12-11-11-|
C#|--------------------------------------------------------------------------|

D#|--------------------------------------------------------------------|
A#|--------------------------------------------------------------------|
F#|--18-18-18-18-18-18-21-21-21-21-21-21-18-18-18-18-18-18---------21--|
C#|--------------------------------------------------------18--19------|
G#|--16-16-16-16-16-16-19-19-19-19-19-19-16-16-16-16-16-16-------------|
C#|--------------------------------------------------------------------|

D#|--------------------------------------------------------------|
A#|--------------------------------------------------------------|
F#|--18-----------16------------16h18------------------------21--|
C#|----------------------------------16--------------18--19------|
G#|--------------------------------------------------------------|
C#|--------------------------------------------------------------|
                             [Back To Verse]
D#|--------------------------|------------|
A#|--------------------------|------------|
F#|--18-----------16---------|--16/18--18-|
C#|--------------------------|------------|
G#|--------------------------|------------|
C#|--------------------------|------------|

Verse
[1:11]

Both Guitars          [Enter Guitar 2]
D#|----------------------------------|
A#|----------------------------------|
F#|----------------------------------|
C#|--4--4-------------4--4---4/14\---|
G#|--4--4-------------4--4---4/14\---|
C#|--4--4-------------4--4---4/14\---|

Verse
[1:14]

Both Guitars
D#|--------------------------------------------------------------------------------------------------|
A#|--------------------------------------------------------------------------------------------------|
F#|--------------------------------------------------------------------------------------------------|
C#|--4-4-4-4-4-4-4-4-4-4-4-4-4-4-4-4-4-6-6-6-6-2-2-2-0-0-0-0-0-0-0-0-0-0-0-0-2-2-2-2-2-2-2-2-2-2-2-2-|x2
G#|--4-4-4-4-4-4-4-4-4-4-4-4-4-4-4-4-4-6-6-6-6-2-2-2-0-0-0-0-0-0-0-0-0-0-0-0-2-2-2-2-2-2-2-2-2-2-2-2-|
C#|--4-4-4-4-4-4-4-4-4-4-4-4-4-4-4-4-4-6-6-6-6-2-2-2-0-0-0-0-0-0-0-0-0-0-0-0-2-2-2-2-2-2-2-2-2-2-2-2-|
     . . . . . . . . . . . . . . . . . . . . . . . . . . . . . . . . . . . . . . . . . . 
. . . .


[1:29]
Guitar 1
D#|--------------------------------------------------------------------------------------------------|
A#|--------------------------------------------------------------------------------------------------|
F#|--------------------------------------------------------------------------------------------------|
C#|--4-4-4-4-4-4-4-4-4-4-4-4-4-4-4-4-4-6-6-6-6-2-2-2-0-0-0-0-0-0-0-0-0-0-0-0-2-2-2-2-2-2-2-2-2-2-2-2-|x2
G#|--4-4-4-4-4-4-4-4-4-4-4-4-4-4-4-4-4-6-6-6-6-2-2-2-0-0-0-0-0-0-0-0-0-0-0-0-2-2-2-2-2-2-2-2-2-2-2-2-|
C#|--4-4-4-4-4-4-4-4-4-4-4-4-4-4-4-4-4-6-6-6-6-2-2-2-0-0-0-0-0-0-0-0-0-0-0-0-2-2-2-2-2-2-2-2-2-2-2-2-|


Guitar 2
D#|--------------------------------------------------------------------------------------------------------------|
A#|--------------------------------------------------------------------------------------------------------------|
F#|--6-6-6-6-6-6-6-6-6-6-6-6-6-6-6-6-6-6-4-4-4-4-4-4-9-9-9-9-9-9-9-9-9-9-9-9-11-11-11-11-11-11-11-11-11-11-11-11-|
C#|--------------------------------------------------------------------------------------------------------------|
G#|--4-4-4-4-4-4-4-4-4-4-4-4-4-4-4-4-4-4-2-2-2-2-2-2-7-7-7-7-7-7-7-7-7-7-7-7-9--9--9--9--9--9--9--9--9--9--9--9--|
C#|--------------------------------------------------------------------------------------------------------------|

D#|--------------------------------------------------------------------------------------------------|
A#|--------------------------------------------------------------------------------------------------|
F#|--6-6-6-6-6-6-6-6-6-6-6-6-6-6-6-6-6-6-6-6-6-6-6-6-4-4-4-4-4-4-4-4-4-4-4-4-4-4-4-4-4-4-4-4-4-4-4-4-|
C#|--------------------------------------------------------------------------------------------------|
G#|--4-4-4-4-4-4-4-4-4-4-4-4-4-4-4-4-4-4-4-4-4-4-4-4-2-2-2-2-2-2-2-2-2-2-2-2-2-2-2-2-2-2-2-2-2-2-2-2-|
C#|--------------------------------------------------------------------------------------------------|

Chorus
[1:43]

Guitar 1
D#|--------------------------------------------------------------------------------------------------|
A#|--------------------------------------------------------------------------------------------------|
F#|--------------------------------------------------------------------------------------------------|
C#|--4-4-4-4-4-4-4-4-4-4-4-4-4-4-4-4-4-4-4-4-4-4-4-4-0-0-0-0-0-0-0-0-0-0-0-0-2-2-2-2-2-2-2-2-2-2-2-2-|
G#|--4-4-4-4-4-4-4-4-4-4-4-4-4-4-4-4-4-4-4-4-4-4-4-4-0-0-0-0-0-0-0-0-0-0-0-0-2-2-2-2-2-2-2-2-2-2-2-2-|
C#|--4-4-4-4-4-4-4-4-4-4-4-4-4-4-4-4-4-4-4-4-4-4-4-4-0-0-0-0-0-0-0-0-0-0-0-0-2-2-2-2-2-2-2-2-2-2-2-2-|

D#|--------------------------------------------------------------------------------------------------|
A#|--------------------------------------------------------------------------------------------------|
F#|--------------------------------------------------------------------------------------------------|
C#|--4-4-4-4-4-4-4-4-4-4-4-4-4-4-4-4-4-4-4-4-4-4-4-4-7-7-7-7-7-7-7-7-7-7-7-7-2-2-2-2-2-2-2-2-2-2-2-2-|
G#|--4-4-4-4-4-4-4-4-4-4-4-4-4-4-4-4-4-4-4-4-4-4-4-4-7-7-7-7-7-7-7-7-7-7-7-7-2-2-2-2-2-2-2-2-2-2-2-2-|
C#|--4-4-4-4-4-4-4-4-4-4-4-4-4-4-4-4-4-4-4-4-4-4-4-4-7-7-7-7-7-7-7-7-7-7-7-7-2-2-2-2-2-2-2-2-2-2-2-2-|

D#|--------------------------------------------------------------------------------------------------|
A#|--------------------------------------------------------------------------------------------------|
F#|--------------------------------------------------------------------------------------------------|
C#|--0----------------------2------------------------4-----------------------------------7-----------|
G#|--0----------------------2------------------------4-----------------------------------7-----------|
C#|--0----------------------2------------------------4-----------------------------------7-----------|
                                                       [2:10]                            [2:16]
D#|-------------------------------------------------|------------------------------------------------|
A#|-------------------------------------------------|------------------------------------------------|
F#|-------------------------------------------------|------------------------------------------------|
C#|--0----------------------2-----------------------|--4---------------------------------2-2-2-2-2-2-|
G#|--0----------------------2-----------------------|--4---------------------------------2-2-2-2-2-2-|
C#|--0----------------------2-----------------------|--4---------------------------------2-2-2-2-2-2-|

Guitar 2
D#|--------------------------------------------------------------------------|
A#|--------------------------------------------------------------------------|
F#|--18-18-18-18-18-18-16-16-16-16-16-16-14-14-14-14-14-14-13-13-14-14-13-13-|
C#|--------------------------------------------------------------------------|x3
G#|--16-16-16-16-16-16-14-14-14-14-14-14-12-12-12-12-12-12-11-11-12-12-11-11-|
C#|--------------------------------------------------------------------------|

D#|--------------------------------------------------------------------|
A#|--------------------------------------------------------------------|
F#|--18-18-18-18-18-18-21-21-21-21-21-21-18-18-18-18-18-18---------21--|
C#|--------------------------------------------------------18--19------|
G#|--16-16-16-16-16-16-19-19-19-19-19-19-16-16-16-16-16-16-------------|
C#|--------------------------------------------------------------------|

D#|--------------------------------------------------------------|
A#|--------------------------------------------------------------|
F#|--18-----------16------------16h18------------------------21--|
C#|----------------------------------16--------------18--19------|
G#|--------------------------------------------------------------|
C#|--------------------------------------------------------------|

                             [2:10]           [2:16]
D#|--------------------------|----------------------------|
A#|--------------------------|------[Hold Note]-----------|
F#|--18-----------16---------|--16/18---------------------|
C#|--------------------------|----------------2-2-2-2-2-2-|
G#|--------------------------|----------------2-2-2-2-2-2-|
C#|--------------------------|----------------2-2-2-2-2-2-|

Bridge
[2:17]

Guitar 1
D#|--------------------------|--------------------------|
A#|--------------------------|--------------------------|
F#|--------------9---7---6h7-|--------------9---7---6h7-|
C#|--0-0-0-0-0-0---0---0-----|--0-0-0-0-0-0---0---0-----|
G#|--0-0-0-0-0-0---0---0-----|--0-0-0-0-0-0---0---0-----|
C#|--0-0-0-0-0-0---0---0-----|--0-0-0-0-0-0---0---0-----|
       . .   . .    .   .           . .   . .    .   .

D#|--------------------------------------------------|
A#|--------------------------------------------------|
F#|--6-6-6-6-6-6-6-6-6-6-6-6-6-6-6-6-6-6-6-6-6-6-6-6-|
C#|--------------------------------------------------|
G#|--4-4-4-4-4-4-4-4-4-4-4-4-4-4-4-4-4-4-4-4-4-4-4-4-|
C#|--------------------------------------------------|

D#|--------------------------|--------------------------|
A#|--------------------------|--------------------------|
F#|--------------9---7---6h7-|--------------9---7---6h7-|
C#|--0-0-0-0-0-0---0---0-----|--0-0-0-0-0-0---0---0-----|
G#|--0-0-0-0-0-0---0---0-----|--0-0-0-0-0-0---0---0-----|
C#|--0-0-0-0-0-0---0---0-----|--0-0-0-0-0-0---0---0-----|
       . .   . .    .   .           . .   . .    .   .

D#|--------------------------------------------------|
A#|--------------------------------------------------|
F#|--6-6-6-6-6-6-6-6-6-6-6-6-------------------------|
C#|--------------------------2-2-2-2-2-2-2-2-2-2-2-2-|
G#|--4-4-4-4-4-4-4-4-4-4-4-4-2-2-2-2-2-2-2-2-2-2-2-2-|
C#|--------------------------2-2-2-2-2-2-2-2-2-2-2-2-|

D#|--------------------------|--------------------------|
A#|--------------------------|--------------------------|
F#|--------------9---7---6h7-|--------------9---7---6h7-|
C#|--0-0-0-0-0-0---0---0-----|--0-0-0-0-0-0---0---0-----|
G#|--0-0-0-0-0-0---0---0-----|--0-0-0-0-0-0---0---0-----|
C#|--0-0-0-0-0-0---0---0-----|--0-0-0-0-0-0---0---0-----|
       . .   . .    .   .           . .   . .    .   .

D#|--------------------------------------------------|
A#|--------------------------------------------------|
F#|--6-6-6-6-6-6-6-6-6-6-6-6-------------------------|
C#|--------------------------2-2-2-2-2-2-2-2-2-2-2-2-|
G#|--4-4-4-4-4-4-4-4-4-4-4-4-2-2-2-2-2-2-2-2-2-2-2-2-|
C#|--------------------------2-2-2-2-2-2-2-2-2-2-2-2-|

D#|--------------------------------------------------|
A#|--------------------------------------------------|
F#|--------------------------------------------------|
C#|--0-0-0-0-0-0-0-0-0-0-0-0-0-0-0-0-0-0-0-0-0-0-0-0-|
G#|--0-0-0-0-0-0-0-0-0-0-0-0-0-0-0-0-0-0-0-0-0-0-0-0-|
C#|--0-0-0-0-0-0-0-0-0-0-0-0-0-0-0-0-0-0-0-0-0-0-0-0-|

Guitar 2
D#|---------------------------|---------------------------|
A#|---------------------------|---------------------------|
F#|---------------------------|---------------------------|
C#|--0-0-0-0-0-0----0---0-----|--0-0-0-0-0-0----0---0-----|
G#|--0-0-0-0-0-0-11-0-9-0-7h9-|--0-0-0-0-0-0-11-0-9-0-7h9-|
C#|--0-0-0-0-0-0----0---0-----|--0-0-0-0-0-0----0---0-----|
       . .   . .    .   .           . .   . .    .   .

D#|--------------------------------------------------|
A#|--------------------------------------------------|
F#|--------------------------------------------------|
C#|--4-4-4-4-4-4-4-4-4-4-4-4-4-4-4-4-4-4-4-4-4-4-4-4-|
G#|--4-4-4-4-4-4-4-4-4-4-4-4-4-4-4-4-4-4-4-4-4-4-4-4-|
C#|--4-4-4-4-4-4-4-4-4-4-4-4-4-4-4-4-4-4-4-4-4-4-4-4-|

D#|---------------------------|---------------------------|
A#|---------------------------|---------------------------|
F#|---------------------------|---------------------------|
C#|--0-0-0-0-0-0----0---0-----|--0-0-0-0-0-0----0---0-----|
G#|--0-0-0-0-0-0-11-0-9-0-7h9-|--0-0-0-0-0-0-11-0-9-0-7h9-|
C#|--0-0-0-0-0-0----0---0-----|--0-0-0-0-0-0----0---0-----|
       . .   . .    .   .           . .   . .    .   .

D#|--------------------------------------------------|
A#|--------------------------------------------------|
F#|--------------------------9-9-9-9-9-9-4-4-4-4-4-4-|
C#|--4-4-4-4-4-4-4-4-4-4-4-4-------------------------|
G#|--4-4-4-4-4-4-4-4-4-4-4-4-7-7-7-7-7-7-2-2-2-2-2-2-|
C#|--4-4-4-4-4-4-4-4-4-4-4-4-------------------------|

D#|---------------------------|---------------------------|
A#|---------------------------|---------------------------|
F#|---------------------------|---------------------------|
C#|--0-0-0-0-0-0----0---0-----|--0-0-0-0-0-0----0---0-----|
G#|--0-0-0-0-0-0-11-0-9-0-7h9-|--0-0-0-0-0-0-11-0-9-0-7h9-|
C#|--0-0-0-0-0-0----0---0-----|--0-0-0-0-0-0----0---0-----|
       . .   . .    .   .           . .   . .    .   .

D#|--------------------------------------------------|
A#|--------------------------------------------------|
F#|--------------------------9-9-9-9-9-9-4-4-4-4-4-4-|
C#|--4-4-4-4-4-4-4-4-4-4-4-4-------------------------|
G#|--4-4-4-4-4-4-4-4-4-4-4-4-7-7-7-7-7-7-2-2-2-2-2-2-|
C#|--4-4-4-4-4-4-4-4-4-4-4-4-------------------------|

D#|--------------------------------------------------|
A#|--------------------------------------------------|
F#|--------------------------------------------------|
C#|--0-0-0-0-0-0-0-0-0-0-0-0-0-0-0-0-0-0-0-0-0-0-0-0-|
G#|--0-0-0-0-0-0-0-0-0-0-0-0-0-0-0-0-0-0-0-0-0-0-0-0-|
C#|--0-0-0-0-0-0-0-0-0-0-0-0-0-0-0-0-0-0-0-0-0-0-0-0-|

Chorus
[2:43]

Guitar 1
D#|--------------------------------------------------------------------------------------------------|
A#|--------------------------------------------------------------------------------------------------|
F#|--------------------------------------------------------------------------------------------------|
C#|--4-4-4-4-4-4-4-4-4-4-4-4-4-4-4-4-4-4-4-4-4-4-4-4-0-0-0-0-0-0-0-0-0-0-0-0-2-2-2-2-2-2-2-2-2-2-2-2-|
G#|--4-4-4-4-4-4-4-4-4-4-4-4-4-4-4-4-4-4-4-4-4-4-4-4-0-0-0-0-0-0-0-0-0-0-0-0-2-2-2-2-2-2-2-2-2-2-2-2-|
C#|--4-4-4-4-4-4-4-4-4-4-4-4-4-4-4-4-4-4-4-4-4-4-4-4-0-0-0-0-0-0-0-0-0-0-0-0-2-2-2-2-2-2-2-2-2-2-2-2-|

D#|--------------------------------------------------------------------------------------------------|
A#|--------------------------------------------------------------------------------------------------|
F#|--------------------------------------------------------------------------------------------------|
C#|--4-4-4-4-4-4-4-4-4-4-4-4-4-4-4-4-4-4-4-4-4-4-4-4-7-7-7-7-7-7-7-7-7-7-7-7-2-2-2-2-2-2-2-2-2-2-2-2-|
G#|--4-4-4-4-4-4-4-4-4-4-4-4-4-4-4-4-4-4-4-4-4-4-4-4-7-7-7-7-7-7-7-7-7-7-7-7-2-2-2-2-2-2-2-2-2-2-2-2-|
C#|--4-4-4-4-4-4-4-4-4-4-4-4-4-4-4-4-4-4-4-4-4-4-4-4-7-7-7-7-7-7-7-7-7-7-7-7-2-2-2-2-2-2-2-2-2-2-2-2-|

D#|--------------------------------------------------------------------------------------------------|
A#|--------------------------------------------------------------------------------------------------|
F#|--------------------------------------------------------------------------------------------------|
C#|--0----------------------2------------------------4-----------------------------------7-----------|
G#|--0----------------------2------------------------4-----------------------------------7-----------|
C#|--0----------------------2------------------------4-----------------------------------7-----------|

D#|-------------------------------------------------|
A#|-------------------------------------------------|
F#|-------------------------------------------------|
C#|--0----------------------2-----------------------|x3
G#|--0----------------------2-----------------------|
C#|--0----------------------2-----------------------|

Guitar 2
D#|--------------------------------------------------------------------------|
A#|--------------------------------------------------------------------------|
F#|--18-18-18-18-18-18-16-16-16-16-16-16-14-14-14-14-14-14-13-13-14-14-13-13-|
C#|--------------------------------------------------------------------------|x3
G#|--16-16-16-16-16-16-14-14-14-14-14-14-12-12-12-12-12-12-11-11-12-12-11-11-|
C#|--------------------------------------------------------------------------|

D#|--------------------------------------------------------------------|
A#|--------------------------------------------------------------------|
F#|--18-18-18-18-18-18-21-21-21-21-21-21-18-18-18-18-18-18---------21--|
C#|--------------------------------------------------------18--19------|
G#|--16-16-16-16-16-16-19-19-19-19-19-19-16-16-16-16-16-16-------------|
C#|--------------------------------------------------------------------|

D#|--------------------------------------------------------------|
A#|--------------------------------------------------------------|
F#|--18-----------16------------16h18------------------------21--|
C#|----------------------------------16--------------18--19------|
G#|--------------------------------------------------------------|
C#|--------------------------------------------------------------|

D#|--------------------------|
A#|--------------------------|
F#|--18-----------16---------|
C#|--------------------------|x3
G#|--------------------------|
C#|--------------------------|

End
[3:16]

Guitar 1
D#|-----|
A#|-----|
F#|-----|
C#|--4--| Let It Ring To Fade
G#|--4--|
C#|--4--|


Guitar 2
D#|--------------------------------------------------------------------|
A#|--------------------------------------------------------------------|
F#|--16h18--------21--19--18---16---18--19--16h18------18-----------21-|
C#|----------------------------------------------16---------18--19-----|
G#|--------------------------------------------------------------------|
C#|--------------------------------------------------------------------|

D#|------------------------------|
A#|------------------------------|
F#|--16h18--------16--------\13--| Let It Ring To Fade
C#|------------------------------|
G#|------------------------------|
C#|------------------------------|


Keys:
x=dead notes
h=hammer-ons
.=palm mute
/=slide up
\=slide down
Tap to rate this tab
# A B C D E F G H I J K L M N O P Q R S T U V W X Y Z