Song name
# A B C D E F G H I J K L M N O P Q R S T U V W X Y Z

It Dies Today - Blood Stained Bedsheet Burden tab

Band- It Dies Today
Song- Blood Stained Bedsheet Burden

Tuning: Drop C

KEY:
. Palm Mute
~ Let Ring
* Repeat as many times as needed

D|-------------------------------------------------------------------|
A|--5~-------------5~---------5~---------5~--------------------------|
F|--8~-------------8~---------8~---------8~--------------------------|
C|-------------------------------------------------------------------|
G|-------------------------------------------------------------------|
C|---------00-00-------00-00-----00-00----------0--0-----------------|
           .. ..       .. ..     .. ..          .  .
(Blood spills…)
D|-------------------------------------------------------------------|
A|--5-----5-----5----------------------------------------------------|
F|--8-----8-----8----------------------------------------------------|
C|-------------------------------------------------------------------|
G|-------------------------------------------------------------------|
C|----000---00----000------------------------------------------------|
      ...   ..    ...

D|---17-----17-----17-----------|------------------------------------|
A|---21-----21-----21-----------|------------------------------------|
F|------------------------------|------------------------------------|
C|------------------------------|------------------------------------|
G|------------------------------|--0~--------------------------------|
C|------000----00-----000-------|--0~--------------------------------|
        ...    ..     ...

(I will not shed)
D|--------------------------------|----------------------------------|
A|--------------------------------|----------------------------------|
F|--------------------------------|----------------------------------|
C|--------------------------------|----------------------------------|
G|--10301030103010301030----------|-0~-------------------------------|
C|--10301030103010301030---0000---|-0~-------------------------------|
        .................       ....

(You took for me…)
D|----------------------------------------|--------------------------|
A|----------------------------------------|--------------------------|
F|----------------------------------------|--------------------------|
C|----------------------------------------|--------------------------|
G|----------------------------------------|-0~-----------------------|
C|--00~-00~--00-0000---00~-00~-00-0000----|-0~-----------------------|
          ..  ..   .. ....   ..  ..  .. ....

(Dream not of me…)
D|---------------------|------------------------------|--------------|
A|---------------------|------------------------------|--------------|
F|---------------------|------------------------------|--------------|
C|---------------------|------------------------------|--------------|
G|--5555555-11111111---|-55555555-11111111------------|5*-1*---------|
C|--5555555-11111111---|-55555555-11111111----111-111-|5*-1*-111-111-|
                                              ..  ..          ..  ..


D|-------------------------------------------------------------------|
A|---------------------------------5~--------------------------------|
F|---------------------------------8~--------------------------------|
C|-------------------------------------------------------------------|
G|-000-0~---000-0~--000-0~--000--------------------------------------|
C|-000-0~---000-0~--000-0~--000--------------------------------------|
   ...      ...     ...     ...

(I will watch you burn)
D|-------------------------------------------------------------------|
A|-------------------------------------------------------------------|
F|-------------------------------------------------------------------|
C|-------------------------------------------------------------------|
G|--0000-000--000-000--0000-000--------------------------------------|
C|--0000-000--000-000--0000-000--------------------------------------|
    .... ...  ... ...  .... ...

Slower part
D|-------------------------------------------------------------------|
A|--------------------5-5-5-5-5-5-5-5-5-5-5-5------------------------|
F|---------------------8-8-8-8-8-8-8-8-8-8-8-8-----------------------|
C|-------------------------------------------------------------------|
G|-------------------------------------------------------------------|
C|--000-000-000-000--------------------------------------------------|
    ... ... ... ...

End
D|-------------------------------------------------------------------|
A|-------------------------------------------------------------------|
F|-------------------------------------------------------------------|
C|-------------------------------------------------------------------|
G|-00~--00~--00~--00~------------------------------------------------|
C|-00~--00~--00~--00~------------------------------------------------|
   ..   ..   ..   .
Tap to rate this tab
# A B C D E F G H I J K L M N O P Q R S T U V W X Y Z