Song name
# A B C D E F G H I J K L M N O P Q R S T U V W X Y Z

It Dies Today - Radiance tab

and- it Dies Today
Song- The radiance

Gtr I (C G C F A D) - 'Untitled'
Gtr II (C G C F A D) - 'Untitled'
Gtr III (C G C F A D) - 'Untitled'
Gtr IV (C G C F A D) - 'Untitled'

 Intro
  Q=192
  G5A5  E5
 2/4
  Gtrs I, II
      PM
  E E E E   +H       +H       +H
|---------|--------|--------|--------|
|---------|--------|--------|--------|
|---------|--------|--------|--------|
|---------|--------|--------|--------|
|-5-7---2-|-(2)----|-(2)----|-(2)----|
|-5-7-0-2-|-(2)----|-(2)----|-(2)----|


  G5A5  D5
      PM
  E E E E   +H       +H       +H
|---------|--------|--------|--------|
|---------|--------|--------|--------|
|---------|--------|--------|--------|
|---------|--------|--------|--------|
|-5-7---0-|-(0)----|-(0)----|-(0)----|
|-5-7-0-0-|-(0)----|-(0)----|-(0)----|


  G5A5  E5
      PM
  E E E E   +H       +H       +H
|---------|--------|--------|--------|
|---------|--------|--------|--------|
|---------|--------|--------|--------|
|---------|--------|--------|--------|
|-5-7---2-|-(2)----|-(2)----|-(2)----|
|-5-7-0-2-|-(2)----|-(2)----|-(2)----|


  G5A5  N.C.
      PM
  E E E E   +E  E E E   E E E E    E  E  E  E
|---------|-----------|---------|-------------||
|---------|-----------|---------|-------------||
|-------7-|-(7)-7-7-7-|-9-9-9-9-|-11-11-11-11-||
|---------|-----------|---------|-------------||
|-5-7---5-|-(5)-5-5-5-|-7-7-7-7-|--9--9--9--9-||
|-5-7-0---|-----------|---------|-------------||


   Verse
    G5A5  E5      N.C.
    Gtr I
        PM        PM|      PM  PM    PM
    E E E E   +E  E E  E   E E E E   E Q  E
||----------|------------|---------|--------|
||o---------|------------|---------|--------|
||----------|------------|---------|--------|
||----------|------------|---------|--------|
||o-5-7---2-|-(2)-----10-|---7---9-|---5--5-|
||--5-7-0-2-|-(2)-0-0----|-0---0---|-0------|
|
|   Gtr II
|       PM        PM|      PM  PM    PM
|   E E E E   +E  E E  E   E E E E   E Q  E
||----------|------------|---------|--------|
||o---------|------------|---------|--------|
||----------|------------|---------|--------|
||----------|----------9-|---5---7-|---4--4-|
||o-5-7---2-|-(2)--------|---------|--------|
||--5-7-0-2-|-(2)-0-0----|-0---0---|-0------|


          D5      N.C.
                  PM|      PM  PM    PM
  S S E E E   +E  E E  E   E E E E   E E  E E
|-----------|------------|---------|----------|
|-----------|------------|---------|----------|
|-----------|------------|---------|----------|
|-----------|------------|---------|---9-10-7-|
|-5h7p5-2-0-|-(0)-----10-|---7---9-|----------|
|---------0-|-(0)-0-0----|-0---0---|-0--------|
|
|                 PM|      PM  PM    PM
| S S E E E   +E  E E  E   E E E E   E E  E E
|-----------|------------|---------|----------|
|-----------|------------|---------|----------|
|-----------|------------|---------|----------|
|-4h5p4-----|----------9-|---5---7-|----------|
|-------5-0-|-(0)--------|---------|---7--8-5-|
|---------0-|-(0)-0-0----|-0---0---|-0--------|


  G5A5  E5      N.C.
      PM        PM|      PM  PM    PM
  E E E E   +E  E E  E   E E E E   E Q  E
|---------|------------|---------|--------
|---------|------------|---------|--------
|---------|------------|---------|--------
|---------|------------|---------|--------
|-5-7---2-|-(2)-----10-|---7---9-|---5--5-
|-5-7-0-2-|-(2)-0-0----|-0---0---|-0------
|
|     PM        PM|      PM  PM    PM
| E E E E   +E  E E  E   E E E E   E Q  E
|---------|------------|---------|--------
|---------|------------|---------|--------
|---------|------------|---------|--------
|---------|----------9-|---5---7-|---4--4-
|-5-7---2-|-(2)--------|---------|--------
|-5-7-0-2-|-(2)-0-0----|-0---0---|-0------


                       1.
             B5                  A5
  S S E Q    E E E E   E E E E   E E E E
|----------|---------|---------|----------||
|----------|---------|---------|---------o||
|----------|---------|---------|----------||
|----------|---------|---------|----------||
|-5h7p5-2--|-9-9---9-|-9-9---9-|-7-7---7-o||
|----------|-9-9---9-|-9-9---9-|-7-7---7--||
|
| S S E Q    E E E E   E E E E   E E E E
|----------|---------|---------|----------||
|----------|---------|---------|---------o||
|----------|---------|---------|----------||
|-4h5p4----|---------|---------|----------||
|-------5--|-9-9---9-|-9-9---9-|-7-7---7-o||
|----------|-9-9---9-|-9-9---9-|-7-7---7--||


  2.
  B5                            A5
  Gtrs I, II
  E E E E   E E E E   E E E E   E E E E   E E E E
|---------|---------|---------|---------|---------
|---------|---------|---------|---------|---------
|---------|---------|---------|---------|---------
|---------|---------|---------|---------|---------
|-9-9---9-|-9-9---9-|-9-9---9-|-7-7---7-|-7-7---7-
|-9-9---9-|-9-9---9-|-9-9---9-|-7-7---7-|-7-7---7-


  E E E E   E E E E   H      H      H      H
|---------|---------|------|------|------|------||
|---------|---------|------|------|------|------||
|---------|---------|------|------|------|------||
|---------|---------|------|------|------|------||
|-7-7---7-|-7-7---7-|------|------|------|------||
|-7-7---7-|-7-7---7-|------|------|------|------||


   Chorus
    $
    $$
    E5        N.C.          E5        N.C.
    Gtr I
    E E E E    E  E  E  E   E E E E    E  E  E  E
||----------|-------------|---------|-------------|
||o---------|-------------|---------|-------------|
||----------|-12-12-12-12-|---------|-11-11-11-11-|
||----------|-------------|---------|-------------|
||o-2-2-2-2-|-10-10-10-10-|-2-2-2-2-|--9--9--9--9-|
||--2-2-2-2-|-------------|-2-2-2-2-|-------------|
|
|   Gtr II
|   E E E E    E  E  E  E   E E E E    E  E  E  E
||----------|-------------|---------|-------------|
||o---------|-------------|---------|-------------|
||----------|--9--9--9--9-|---------|--7--7--7--7-|
||----------|-------------|---------|-------------|
||o-2-2-2-2-|--7--7--7--7-|-2-2-2-2-|--5--5--5--5-|
||--2-2-2-2-|-------------|-2-2-2-2-|-------------|


  E5        N.C.
            PM--|
  E E E E   E E E E   E E E E   E E E E
|---------|---------|---------|---------|
|---------|---------|---------|---------|
|---------|---------|---------|---------|
|---------|-------5-|-4-0-4---|---------|
|-2-2-2-2-|---------|-------5-|-2-0-----|
|-2-2-2-2-|-0-0-0---|---------|-----5-2-|
|
|           PM--|
| E E E E   E E E E   E E E E   E E E E
|---------|---------|---------|---------|
|---------|---------|---------|---------|
|---------|---------|---------|---------|
|---------|-------5-|-4-0-4---|---------|
|-2-2-2-2-|---------|-------5-|-2-0-----|
|-2-2-2-2-|-0-0-0---|---------|-----5-2-|


  E5        N.C.          E5        N.C.
  E E E E    E  E  E  E   E E E E    E  E  E  E
|---------|-------------|---------|-------------
|---------|-------------|---------|-------------
|---------|-12-12-12-12-|---------|-11-11-11-11-
|---------|-------------|---------|-------------
|-2-2-2-2-|-10-10-10-10-|-2-2-2-2-|--9--9--9--9-
|-2-2-2-2-|-------------|-2-2-2-2-|-------------
|
| E E E E    E  E  E  E   E E E E    E  E  E  E
|---------|-------------|---------|-------------
|---------|-------------|---------|-------------
|---------|--9--9--9--9-|---------|--7--7--7--7-
|---------|-------------|---------|-------------
|-2-2-2-2-|--7--7--7--7-|-2-2-2-2-|--5--5--5--5-
|-2-2-2-2-|-------------|-2-2-2-2-|-------------


                          To Dbl. Coda
  G5                  A5
  E E E E   E E E E   E E E E   E E E E
|---------|---------|---------|----------||
|---------|---------|---------|---------o||
|---------|---------|---------|----------||
|---------|---------|---------|----------||
|-5-5-5-5-|-5-5-5-5-|-7-7-7-7-|-7-7-7-7-o||
|-5-5-5-5-|-5-5-5-5-|-7-7-7-7-|-7-7-7-7--||
|
| E E E E   E E E E   E E E E   E E E E
|---------|---------|---------|----------||
|---------|---------|---------|---------o||
|---------|---------|---------|----------||
|---------|---------|---------|----------||
|-5-5-5-5-|-5-5-5-5-|-7-7-7-7-|-7-7-7-7-o||
|-5-5-5-5-|-5-5-5-5-|-7-7-7-7-|-7-7-7-7--||


  F5
  Gtrs I, II
  E E E E   E E E E   E E E E   E E E E
|---------|---------|---------|---------|
|---------|---------|---------|---------|
|---------|---------|---------|---------|
|---------|---------|---------|---------|
|-3-3-3-3-|-3-3-3-3-|-3-3-3-3-|-3-3-3-3-|
|-3-3-3-3-|-3-3-3-3-|-3-3-3-3-|-3-3-3-3-|


                     To Coda
                                    E5
  E E E E   E E E E   E E E E   E E Q
|---------|---------|---------|--------||
|---------|---------|---------|--------||
|---------|---------|---------|--------||
|---------|---------|---------|--------||
|-3-3-3-3-|-3-3-3-3-|-3-3-3-3-|-3-3-2--||
|-3-3-3-3-|-3-3-3-3-|-3-3-3-3-|-3-3-2--||


      N.C.                                  E5
  Gtr I
      PM-|      PM   PM    PM
  +E  E  E  E   E  E E E   E Q  E   S S E E E
|-------------|----------|--------|-----------|
|-------------|----------|--------|-----------|
|-------------|----------|--------|-----------|
|-------------|----------|--------|-----------|
|-(2)------10-|----7---9-|---5--5-|-5h7p5-2-2-|
|-(2)-0--0----|-0----0---|-0------|---------2-|
|
| Gtr II
|                          PM
| +E  Q.        Q.     E   E Q  E   S S E E E
|-------------|----------|--------|-----------|
|-------------|----------|--------|-----------|
|-------------|----------|--------|-----------|
|-------------|----------|--------|-----------|
|-(2)---------|--------9-|---5--5-|-5h7p5-2-2-|
|-(2)---------|----------|-0------|---------2-|


 2nd Verse
      N.C.
  Gtr I
      PM|      PM  PM    PM
  +E  E E  E   E E E E   E Q  E
|------------|---------|--------|
|------------|---------|--------|
|------------|---------|--------|
|------------|---------|--------|
|-(2)-----10-|---7---9-|---5--5-|
|-(2)-0-0----|-0---0---|-0------|
|
| Gtr II
|     PM|      PM  PM    PM
| +E  E E  E   E E E E   E Q  E
|------------|---------|--------|
|------------|---------|--------|
|------------|---------|--------|
|----------9-|---5---7-|---4--4-|
|-(2)--------|---------|--------|
|-(2)-0-0----|-0---0---|-0------|


            D5      N.C.
                    PM|      PM  PM    PM
    S S E E E   +E  E E  E   E E E E   E E  E E
||------------|------------|---------|----------|
||o-----------|------------|---------|----------|
||------------|------------|---------|----------|
||------------|------------|---------|---9-10-7-|
||o-5h7p5-2-0-|-(0)-----10-|---7---9-|----------|
||----------0-|-(0)-0-0----|-0---0---|-0--------|
|
|                   PM|      PM  PM    PM
|   S S E E E   +E  E E  E   E E E E   E E  E E
||------------|------------|---------|----------|
||o-----------|------------|---------|----------|
||------------|------------|---------|----------|
||--4h5p4-----|----------9-|---5---7-|----------|
||o-------5-0-|-(0)--------|---------|---7--8-5-|
||----------0-|-(0)-0-0----|-0---0---|-0--------|


  G5A5  E5      N.C.
      PM        PM|      PM  PM    PM
  E E E E   +E  E E  E   E E E E   E Q  E
|---------|------------|---------|--------
|---------|------------|---------|--------
|---------|------------|---------|--------
|---------|------------|---------|--------
|-5-7---2-|-(2)-----10-|---7---9-|---5--5-
|-5-7-0-2-|-(2)-0-0----|-0---0---|-0------
|
|     PM        PM|      PM  PM    PM
| E E E E   +E  E E  E   E E E E   E Q  E
|---------|------------|---------|--------
|---------|------------|---------|--------
|---------|------------|---------|--------
|---------|----------9-|---5---7-|---4--4-
|-5-7---2-|-(2)--------|---------|--------
|-5-7-0-2-|-(2)-0-0----|-0---0---|-0------


                       1.
             B5                  A5
  S S E Q    E E E E   E E E E   E E E E
|----------|---------|---------|---------|
|----------|---------|---------|---------|
|----------|---------|---------|---------|
|----------|---------|---------|---------|
|-5h7p5-2--|-9-9---9-|-9-9---9-|-7-7---7-|
|----------|-9-9---9-|-9-9---9-|-7-7---7-|
|
| S S E Q    E E E E   E E E E   E E E E
|----------|---------|---------|---------|
|----------|---------|---------|---------|
|----------|---------|---------|---------|
|-4h5p4----|---------|---------|---------|
|-------5--|-9-9---9-|-9-9---9-|-7-7---7-|
|----------|-9-9---9-|-9-9---9-|-7-7---7-|


  G5A5  E5      N.C.
  Gtr I
      PM        PM|      PM  PM    PM
  E E E E   +E  E E  E   E E E E   E Q  E
|---------|------------|---------|---------||
|---------|------------|---------|--------o||
|---------|------------|---------|---------||
|---------|------------|---------|---------||
|-5-7---2-|-(2)-----10-|---7---9-|---5--5-o||
|-5-7-0-2-|-(2)-0-0----|-0---0---|-0-------||
|
| Gtr II
|     PM        PM|      PM  PM    PM
| E E E E   +E  E E  E   E E E E   E Q  E
|---------|------------|---------|---------||
|---------|------------|---------|--------o||
|---------|------------|---------|---------||
|---------|----------9-|---5---7-|---4--4--||
|-5-7---2-|-(2)--------|---------|--------o||
|-5-7-0-2-|-(2)-0-0----|-0---0---|-0-------||


  2.
  B5                            A5
  Gtrs I, II
  E E E E   E E E E   E E E E   E E E E   E E E E
|---------|---------|---------|---------|---------
|---------|---------|---------|---------|---------
|---------|---------|---------|---------|---------
|---------|---------|---------|---------|---------
|-9-9---9-|-9-9---9-|-9-9---9-|-7-7---7-|-7-7---7-
|-9-9---9-|-9-9---9-|-9-9---9-|-7-7---7-|-7-7---7-


                                 D.S. al Coda
  E E E E   E E E E   H      H      H      H
|---------|---------|------|------|------|------||
|---------|---------|------|------|------|------||
|---------|---------|------|------|------|------||
|---------|---------|------|------|------|------||
|-7-7---7-|-7-7---7-|------|------|------|------||
|-7-7---7-|-7-7---7-|------|------|------|------||


 Breakdown
  &
  F5  E5
  E E Q    +Q.   E   E E E E   E E E E
|--------|---------|---------|---------|
|--------|---------|---------|---------|
|--------|---------|---------|---------|
|--------|---------|---------|---------|
|-3-3-2--|-(2)-----|-2-2---2-|---2-2---|
|-3-3-2--|-(2)-----|-2-2---2-|---2-2---|


    G5A5  E5
    E E E E   +Q.   E   E E E E   E E E E
||----------|---------|---------|---------|
||o---------|---------|---------|---------|
||----------|---------|---------|---------|
||----------|---------|---------|---------|
||o-5-7---2-|-(2)-----|-2-2---2-|---2-2---|
||--5-7-0-2-|-(2)-----|-2-2---2-|---2-2---|


  G5A5  D5
  E E E E   +Q.   E   E E E E   E E E E
|---------|---------|---------|---------|
|---------|---------|---------|---------|
|---------|---------|---------|---------|
|---------|---------|---------|---------|
|-5-7---0-|-(0)-----|-0-0---0-|---0-0---|
|-5-7-0-0-|-(0)-----|-0-0---0-|---0-0---|


  G5A5  E5
  E E E E   +Q.   E   E E E E   E E E E
|---------|---------|---------|---------
|---------|---------|---------|---------
|---------|---------|---------|---------
|---------|---------|---------|---------
|-5-7---2-|-(2)-----|-2-2---2-|-5-5-5-5-
|-5-7-0-2-|-(2)-----|-2-2---2-|-5-5-5-5-


  1.
  G5A5  E5
  E E E E   +Q.   E   E E E E   E E E E
|---------|---------|---------|----------||
|---------|---------|---------|---------o||
|---------|---------|---------|----------||
|---------|---------|---------|----------||
|-5-7---2-|-(2)-----|-2-2---2-|---2-2---o||
|-5-7-0-2-|-(2)-----|-2-2---2-|---2-2----||


  2.
  G5A5      N.C.
  Gtr I     Gtr III
  E E E E    H         +H          +H          H
|---------|-<7>-----|-(<7>)-----|-(<7>)-----|---------|
|---------|---------|-----------|-----------|---------|
|---------|---------|-----------|-----------|-<7>-----|
|---------|---------|-----------|-----------|---------|
|-5-7-----|---------|-----------|-----------|---------|
|-5-7-0---|---------|-----------|-----------|---------|
|
| Gtr II    Gtr IV
| E E E E    Q.   E    +Q    Q      Q.    E   +Q   Q
|---------|---------|-----------|-----------|---------|
|---------|---------|-----------|-----------|---------|
|---------|---------|-----------|---4-------|---------|
|---------|---------|--------2--|---------2-|-(2)-----|
|-5-7-----|-------2-|--(2)------|-----------|------2--|
|-5-7-0---|--2------|-----------|-----------|---------|


   H         +H          +H           H
|---------|-----------|-----------|----------|
|---------|-----------|-----------|-<12>-----|
|---------|-----------|-----------|----------|
|---------|-----------|-----------|----------|
|-<5>-----|-(<5>)-----|-(<5>)-----|----------|
|---------|-----------|-----------|----------|
|
|  Q.   E    +Q    Q      Q.    E    +Q   Q
|---------|-----------|-----------|----------|
|---------|-----------|-----------|----------|
|---------|-----------|---4-------|----------|
|---------|--------2--|---------2-|--(2)-----|
|-------2-|--(2)------|-----------|-------2--|
|--0------|-----------|-----------|----------|


    +H           +H           +H           +H
|------------|------------|------------|------------
|-(<12>)-----|-(<12>)-----|-(<12>)-----|-(<12>)-----
|------------|------------|------------|------------
|------------|------------|------------|------------
|------------|------------|------------|------------
|------------|------------|------------|------------
|
|    Q.    E     +Q    Q       Q.    E     +Q    Q
|------------|------------|------------|------------
|------------|------------|------------|------------
|------------|------------|----4-------|------------
|------------|---------2--|----------2-|---(2)------
|----------2-|---(2)------|------------|---------2--
|----2-------|------------|------------|------------


                            D.S.S. al Dbl. Coda
      +H          +H          +H          +H
|-------------|-----------|-----------|-----------|
|---(<12>)----|-(<12>)----|-(<12>)----|-(<12>)----|
|-------------|-----------|-----------|-----------|
|-------------|-----------|-----------|-----------|
|-------------|-----------|-----------|-----------|
|-------------|-----------|-----------|-----------|
|
| a    H          +H          +H          +H
|-------------|-----------|-----------|-----------|
|-------------|-----------|-----------|-----------|
|-------------|-----------|-----------|-----------|
|-------------|-----------|-----------|-----------|
|-------------|-----------|-----------|-----------|
|-2s===5------|---(5)-----|---(5)-----|---(5)-----|


   Out Chorus
    &&
    E5        N.C.          E5        N.C.
    Gtr I
    E E E E    E  E  E  E   E E E E    E  E  E  E
||----------|-------------|---------|-------------|
||o---------|-------------|---------|-------------|
||----------|-12-12-12-12-|---------|-11-11-11-11-|
||----------|-------------|---------|-------------|
||o-2-2-2-2-|-10-10-10-10-|-2-2-2-2-|--9--9--9--9-|
||--2-2-2-2-|-------------|-2-2-2-2-|-------------|
|
|   Gtr II
|   E E E E    E  E  E  E   E E E E    E  E  E  E
||----------|-------------|---------|-------------|
||o---------|-------------|---------|-------------|
||----------|--9--9--9--9-|---------|--7--7--7--7-|
||----------|-------------|---------|-------------|
||o-2-2-2-2-|--7--7--7--7-|-2-2-2-2-|--5--5--5--5-|
||--2-2-2-2-|-------------|-2-2-2-2-|-------------|


  E5        N.C.
            PM--|
  E E E E   E E E E   E E E E   E E E E
|---------|---------|---------|---------|
|---------|---------|---------|---------|
|---------|---------|---------|---------|
|---------|-------5-|-4-0-4---|---------|
|-2-2-2-2-|---------|-------5-|-2-0-----|
|-2-2-2-2-|-0-0-0---|---------|-----5-2-|
|
|           PM--|
| E E E E   E E E E   E E E E   E E E E
|---------|---------|---------|---------|
|---------|---------|---------|---------|
|---------|---------|---------|---------|
|---------|-------5-|-4-0-4---|---------|
|-2-2-2-2-|---------|-------5-|-2-0-----|
|-2-2-2-2-|-0-0-0---|---------|-----5-2-|


  E5        N.C.          E5        N.C.
  E E E E    E  E  E  E   E E E E    E  E  E  E
|---------|-------------|---------|-------------
|---------|-------------|---------|-------------
|---------|-12-12-12-12-|---------|-11-11-11-11-
|---------|-------------|---------|-------------
|-2-2-2-2-|-10-10-10-10-|-2-2-2-2-|--9--9--9--9-
|-2-2-2-2-|-------------|-2-2-2-2-|-------------
|
| E E E E    E  E  E  E   E E E E    E  E  E  E
|---------|-------------|---------|-------------
|---------|-------------|---------|-------------
|---------|--9--9--9--9-|---------|--7--7--7--7-
|---------|-------------|---------|-------------
|-2-2-2-2-|--7--7--7--7-|-2-2-2-2-|--5--5--5--5-
|-2-2-2-2-|-------------|-2-2-2-2-|-------------


  G5                  A5
  E E E E   E E E E   E E E E   E E E E
|---------|---------|---------|----------||
|---------|---------|---------|---------o||
|---------|---------|---------|----------||
|---------|---------|---------|----------||
|-5-5-5-5-|-5-5-5-5-|-7-7-7-7-|-7-7-7-7-o||
|-5-5-5-5-|-5-5-5-5-|-7-7-7-7-|-7-7-7-7--||
|
| E E E E   E E E E   E E E E   E E E E
|---------|---------|---------|----------||
|---------|---------|---------|---------o||
|---------|---------|---------|----------||
|---------|---------|---------|----------||
|-5-5-5-5-|-5-5-5-5-|-7-7-7-7-|-7-7-7-7-o||
|-5-5-5-5-|-5-5-5-5-|-7-7-7-7-|-7-7-7-7--||


  F5
  Gtrs I, II
  E E E E   E E E E   E E E E   E E E E
|---------|---------|---------|---------|
|---------|---------|---------|---------|
|---------|---------|---------|---------|
|---------|---------|---------|---------|
|-3-3-3-3-|-3-3-3-3-|-3-3-3-3-|-3-3-3-3-|
|-3-3-3-3-|-3-3-3-3-|-3-3-3-3-|-3-3-3-3-|


                                    E5
  E E E E   E E E E   E E E E   E E Q
|---------|---------|---------|--------|
|---------|---------|---------|--------|
|---------|---------|---------|--------|
|---------|---------|---------|--------|
|-3-3-3-3-|-3-3-3-3-|-3-3-3-3-|-3-3-2--|
|-3-3-3-3-|-3-3-3-3-|-3-3-3-3-|-3-3-2--|


                                G5A5  E5
  +Q.   E   E E E E   E E E E   E E E E   +Q.   E
|---------|---------|---------|---------|---------|
|---------|---------|---------|---------|---------|
|---------|---------|---------|---------|---------|
|---------|---------|---------|---------|---------|
|-(2)-----|-2-2---2-|---2-2---|-5-7---2-|-(2)-----|
|-(2)-----|-2-2---2-|---2-2---|-5-7-0-2-|-(2)-----|


            A5C5 B5A5  B5G5D5E5
  E E E E   E  E E E   E E E E   H
|---------|----------|---------|------*|
|---------|----------|---------|------*|
|---------|----------|---------|------*|
|---------|----------|-----7-9-|------*|
|-2-2---2-|-7-10-9-7-|-9-5-5-7-|------*|
|-2-2---2-|-7-10-9-7-|-9-5-----|------*|


Duration Legend
---------------
W - whole; H - half; Q - quarter; E - 8th; S - 16th; T - 32nd; X - 64th; a - acciaccatura
+ - note tied to previous; . - note dotted; .. - note double dotted
Uncapitalized letters represent notes that are staccato (1/2 duration)
Irregular groupings are notated above the duration line
Duration letters will always appear directly above the note/fret number it represents the
duration for.  Duration letters with no fret number below them represent rests.  Multi-
bar rests are notated in the form Wxn, where n is the number of bars to rest for.  Low
melody durations appear below the staff

Tablature Legend
----------------
 h   - hammer-on
 p   - pull-off
 b   - bend
 pb  - pre-bend
 r   - bend release (if no number after the r, then release immediately)
 /\  - slide into or out of (from/to "nowhere")
 s   - legato slide

 S   - shift slide
  - natural harmonic
[n]  - artificial harmonic
n(n) - tapped harmonic
 ~   - vibrato
 tr  - trill
 T   - tap
 TP  - trem. picking
 PM  - palm muting
\n/  - tremolo bar dip; n = amount to dip
 \n  - tremolo bar down
 n/  - tremolo bar up
/n\  - tremolo bar inverted dip
 =   - hold bend; also acts as connecting device for hammers/pulls
 <>  - volume swell (louder/softer)
 x   - on rhythm slash represents muted slash
 o   - on rhythm slash represents single note slash

Misc Legend
-----------
 |  - bar
||  - double bar
||o - repeat start
o|| - repeat end
*|  - double bar (ending)
 :  - bar (freetime)
 $  - Segno
 &  - Coda
Tempo markers -  = BPM(8/16=s8/s16), where s8 = swing 8ths, s16 = swing 16ths


***************************************************************************************
* Generated using Power Tab Editor by Brad Larsen - http://powertab.guitarnetwork.org *
***************************************************************************************

Tap to rate this tab
# A B C D E F G H I J K L M N O P Q R S T U V W X Y Z