Song name
# A B C D E F G H I J K L M N O P Q R S T U V W X Y Z

It Dies Today - Sentiments Of You tab

Okay, several things before you read this tab. I learned the song using a tab
on a different site, which was very good and more accurate than most of the
ones you find. However, it was not on this one and it did have some mistakes
I felt needed to be corrected, though there's a chance the author was using
the original version of the song, where as this is based on the re-release of
The Caitiff Choir which included revised versions of Forever Scorned and the
band's Enjoy The Silence cover.
This is for the lead guitar only, since in most of the harmonizing the other
guitar is still playing the first part anyway.
There is ALOT of tremolo picking.
Also, I hate to do this but for the most part you'll have to figure out how
many times to play the riffs yourself, so don't be fooled by the x3 or
whatever.

KEY:
. palm mute
h hammer-on
p pull-off
* pinch harmonic

RIFF A:
|-------------------------------------------------------------------|
|-------------------------------------------------------------------|
|-------------------------------------------------------------------|
|-------------------------------------------------------------------|
|-0--0-0-0--00000--00-0-0-0-0-0-0-0--0-0-0--00000--00-0-0-0-0-0-0-0-|
|-0--0-0-0--00000--00-0-0-0-0-0-0-0--0-0-0--00000--00-0-0-0-0-0-0-0-|
  .  . . .  .....  .. . . . . . . .  . . .  .....  .. . . . . . . .

|-------------------------------------------|
|-------------------------------------------|
|-------------------------------------------|
|-------------------------------------------|
|-8881011-10-10-1010101113-11-11-1111111315-|
|-------------------------------------------|

|----------------------------------|
|----------------------------------|
|----------------------------------|
|----------------------------------|
|-13131313161616161515151513131313-|
|----------------------------------|

|---------------------------------------------|
|---------------------------------------------|
|---------------------------------------------|
|---------------------------------------------|
|-8-8881011-10-10-1010101113-11-11-1111111315-|
|---------------------------------------------|

|----------------------------------|
|----------------------------------|
|----------------------------------|
|----------------------------------|
|-131313131818181816161616---------|
|-------------------------13131313-|

RIFF B:
|--------------------------------|x3
|--------------------------------|
|--------------------------------|
|--------------------------------|
|-4h5p4------5h7p5------7h8p7----|
|-------0000-------0000-------00-|
        ....       ....       ..

|----------------------------------|
|----------------------------------|
|----------------------------------|
|----------------------------------|
|-----8888777755557777555544445555-|
|-6666-----------------------------|

|------------------------------------|x3
|------------------------------------|
|------------------------------------|
|------------------------------------|
|-7h8p7------8h10p8------10h13p10----|
|-------0000--------0000----------00-|
        ....        ....          ..

|----------------------------------|
|----------------------------------|
|----------------------------------|
|----------------------------------|
|-----8888777755557777555544445555-|
|-6666-----------------------------|

RIFF C:
|------------------------------------------------------|
|------------------------------------------------------|
|------------------------------------------------------|
|-------------------------------------8888777755557777-|
|-00-5*-00-00-00-5*-00-00-00-5*-00-00------------------|
|-00----00-00-00----00-00-00----00-00------------------|
  ..    .. .. ..    .. .. ..    .. ..

|------------------------------------------------------|
|------------------------------------------------------|
|------------------------------------------------------|
|------------------------------------------------------|
|-00-5*-00-00-00-5*-00-00-00-5*-00-00-8888777755554444-|
|-00----00-00-00----00-00-00----00-00------------------|
  ..    .. .. ..    .. .. ..    .. ..

|-------------|
|-------------|
|-------------|
|-------------|
|-6--5--3--2--|
|-6--5--3--2--|

RIFF D:
|--------------------|x5
|--------------------|
|--------------------|
|--------------------|
|-0000000--000-0-000-|
|-0000000--000-0-000-|
  .......  ... . ...

RIFF E:
|---------------------------------------------------------------|
|---------------------------------------------------------------|
|---------------------------------------------------------------|
|---------------------------------------------------------------|
|----7h8p7-6h7p6---7h8p7-6h7p6--------7h8p7-6h7p6---7h8p7-6h7p6-|
|-666-----------666-----------66666666-----------666------------|
  ...           ...           ........           ...

|-----------------------------------------------------------------------------|
|-----------------------------------------------------------------------------|
|-----------------------------------------------------------------------------|
|-----------------------------------------------------------------------------|
|---------7h8p7-6h7p6---7h8p7-6h7p6--------7h8p7-6h7p6---10101010888877778888-|
|-66666677-----------777-----------77777777-----------777---------------------|
  ........           ...           ........           ...

|-------------------------------------------------------------------|
|-------------------------------------------------------------------|
|-------------------------------------------------------------------|
|-------------------------------------------------------------------|
|----9h10p9-8h9p8---9h10p9-8h9p8--------9h10p9-8h9p8---9h10p9-8h9p8-|
|-999------------999------------99999999------------999-------------|
  ...            ...            ........            ...

|----------------------------------------------------------------------------|
|----------------------------------------------------------------------------|
|----------------------------------------------------------------------------|
|----------------------------------------------------------------------------|
|-----------9h10p9-8h9p8------9h10p9-8h9p8----------------9h10p9-8h9p8-------|
|-9999991010------------101010------------1010101010101010------------101010-|
  ..........            ......            ................            ......

|----------------------------------|
|----------------------------------|
|----------------------------------|
|----------------------------------|
|-12121212101010101111111110101010-|
|----------------------------------|

RIFF F:
|-----------------------------------------------------|x2
|-----------------------------------------------------|
|-----------------------------------------------------|
|-----------------------------------------------------|
|----4----5----4---8---7---5----4----5----8-7-5-7-5-4-|
|-00---00---00---0---0---0---00---00---00-------------|
  ..   ..   ..   .   .   .   ..   ..   ..

|-------------|
|-------------|
|-------------|
|-8-7-5-7-5-3-|
|-------------|
|-------------|

RIFF G:
|-----------------|x2
|-----------------|
|-----------------|
|---------9---9---|
|-8---7---7---7---|
|-8---7-------0---|

|------|
|------|
|------|
|------|
|-5-7*-|
|------|

|-----------------|
|-----------------|
|-----------------|
|---------9---9---|
|-8---7---7---7---|
|-8---7-------0---|

|-----------------------------------------------------------------------|
|-----------------------------------------------------------------------|
|-----------------------------------------------------------------------|
|----------------------------------999999999999999999999999-------------|
|-888888888888888877777777777777777777777777777777777777777555555777777-|
|-888888888888888877777777777777777----------------00000000-------------|
  .........................................................

|-------------------------------------------|
|-------------------------------------------|
|-------------------------------------------|
|----------------------------------9--7--4--|
|-8888888888888888777777777777777777--5--5--|
|-888888888888888877777777777777777---------|
  .................................

REPEAT RIFF A
and end on
|----|
|----|
|----|
|-0--|
|-0--|
|-0--|

BADASS BREAKDOWN:(mute X's over 1)
|-------------------------------------------------|x3
|-------------------------------------------------|
|-------------------------------------------------|
|-----------------------------------------------X-|
|-0-0-0-0--000-0-0--0-000-000-0-0-0-0--000-0-0--X-|
|-0-0-0-0--000-0-0--0-000-000-0-0-0-0--000-0-0--X-|
  . . . .  ... . .  . ... ... . . . .  ... . .

|--------------------------------------------------|
|--------------------------------------------------|
|--------------------------------------------------|
|------------------------------------------------X-|
|-0000000--0000000--0-00000000-000-0-0--0000000--X-|
|-0000000--0000000--0-00000000-000-0-0--0000000--X-|
  .......  .......  . ........ ... . .  .......

|------------------|
|------------------|
|------------------|
|------------------|
|-0-0-0-0--000-0-0-|
|-0-0-0-0--000-0-0-|
  . . . .  ... . .
Tap to rate this tab
# A B C D E F G H I J K L M N O P Q R S T U V W X Y Z