Song name
# A B C D E F G H I J K L M N O P Q R S T U V W X Y Z

It Dies Today - The Caitiff Choir Defeatism tab

Song: The Caitiff Choir: Defeatism
Artist: It Dies Today
Album: The Caitiff Choir
Tabbed by: Mackenzie Shockley (ilubmyself17@aol.com, www.myspace.com/kenariffic)
Tuning: Drop C

Hokay, so. There is one other tab on this site and it's way off, so this is what I have 
far. There are some parts where there is more than

just two guitar parts, and it fades in and out and stuff, so it's hard to tell some 
so I'm just tabbing what I hear and what's

distinguishable.

Intro
Guitar I - Once with some wierd effect
D--------------------------------------------------|
A--------------------------------------------------|
F--7--7--7--9--9--9--9--9--9--9--9--9--7--7--9--9--|
C--7--7--7--7--7--7--10-10-10-7--7--7--7--7--7--7--|
G--8--8--8--8--8--8--8--8--8--8--8--8--8--8--8--8--|
C--------------------------------------------------|


When screaming comes in
Guitar I - three times with effect(0:03)
D--------------------------------------------------|
A--------------------------------------------------|
F--7--7--7--9--9--9--9--9--9--9--9--9--7--7--9--9--|
C--7--7--7--7--7--7--10-10-10-7--7--7--7--7--7--7--|
G--8--8--8--8--8--8--8--8--8--8--8--8--8--8--8--8--|
C--------------------------------------------------|

D--------------------------------------------------|
A--------------------------------------------------|
F--7--7--7--9--9--9--9--9--9--9--9--9--7--7--9--9--|
C--7--7--7--7--7--7--10-10-10-7--7--7--7--7--7--7--|
G--8--8--8--8--8--8--8--8--8--8--8--8--8--8--8--8--|
C--------------------------------------------------|

D--------------------------------------------------|
A--------------------------------------------------|
F--------5-----5--5--------5-----5--5--------5-----|
C--7--7--7--7--7--7--7--7--7--7--7--7--7--7--7--7--|
G--7--7--7--7--7--7--7--7--7--7--7--7--7--7--7--7--|
C--------------------------------------------------|

D--------------------------------------------------|
A--------5-----5-----------5-----5-----5-----------|
F--5--5--5--5--5--5--5--5--5--5--5--5--5--5--5--5--|
C--7--7--7--7--7--7--7--7--7--7--7--7--7--7--7--7--|
G--------------------------------------------------|
C--------------------------------------------------|

Guitar II - twice
D------------------------|
A------------------------|
F------------------------|
C------------------------|
G--00-0000-00--000000-00-|
C--00-0000-00--000000-00-|
PM .. .... ..  ...... ..

D------------------------|
A------------------------|
F------------------------|
C------------------------|
G--00-0000-00--000000-00-|
C--00-0000-00--000000-00-|
PM .. .... ..  ...... ..

D------------------------|
A------------------------|
F------------------------|
C------------------------|
G--33-3333-33--333333-33-|
C--33-3333-33--333333-33-|
PM .. .... ..  ...... ..

D------------------------|
A------------------------|
F------------------------|
C------------------------|
G--55-5555-55--555555-55-|
C--55-5555-55--555555-55-|
PM .. .... ..  ...... ..


Guitar II - (0:30)
D---------------------------|
A---------------------------|
F---------------------------|
C--0~--0~--3~--5~--8p7--7p5-|
G--0~--0~--3~--5~--8p7--7p5-|
C--0~--0~--3~--5~-----------|


Verse
Guitar I & II - Guitar I does this twice, Guitar II once(0:43)
D-------------------------------------------------------------|
A-------------------------------------------------------------|
F-------------------------------------------------------------|
C-----------------------------------7p5---------7p5-----7p5---|
G-0-0-1-0-7h8-----5h7-----------------------------------------|
C-0-0-1-0-----0-0-----0-0-0-3-3-3-3-----5-5-5-5-----7-7-------|
PM  .         . .     . . . . . . .     . . . .     . .
D-------------------------------------------------------------|
A-------------------------------------------------------------|
F-------------------------------------------------------------|
C-----------------------------------7p5---------7p5-----------|
G-0-0-1-0-7h8-----5h7-----------------------------------7h8---|
C-0-0-1-0-----0-0-----0-0-0-3-3-3-3-----5-5-5-5-----7-7-------|
PM  .         . .     . . . . . . .     . . . .     . .

Guitar II - (0:53)
D-------------------------------------------------------------|
A-------------------------------------------------------------|
F-------------------------------------------------------------|
C---------5h7-----3h5---------------7p5---------7p5-----7p5---|
G-0-0-1-0-----------------------------------------------------|
C-0-0-1-0-----0-0-----0-0-0-3-3-3-3-----5-5-5-5-----7-7-------|
PM  .         . .     . . . . . . .     . . . .     . .
D-------------------------------------------------------------|
A-------------------------------------------------------------|
F-------------------------------------------------------------|
C---------5h7-----3h5---------------7p5---------7p5-----------|
G-0-0-1-0-----------------------------------------------7h8---|
C-0-0-1-0-----0-0-----0-0-0-3-3-3-3-----2-2-2-2-----7-7-------|
PM  .         . .     . . . . . . .     . . . .     . .


Guitar I & II - (1:03)
D------------------------------------------------|
A------------------------------------------------|
F--7-7-7-7--7-5-5-5-5-5-5-7-7-7-7--7-5-5-5-5-5-5-|
C--7-7-7-7--7-5-5-5-5-5-5-7-7-7-7--7-5-5-5-5-5-5-|
G--5-5-5-5--5-3-3-3-3-3-3-5-5-5-5--5-3-3-3-3-3-3-|
C------------------------------------------------|

D--------------------------------------------------|
A--------------------------------------------------|
F--3-3-3-3--3-3-3-3-3-3-3-3-3----------------------|
C--3-3-3-3--3-3-3-3-3-3-3-3-3-5-5-5-5--5-5-5-5-5-3-|
G--1-1-1-1--1-1-1-1-1-1-1-1-1-5-5-5-5--5-5-5-5-5-3-|
C-----------------------------5-5-5-5--5-5-5-5-5-3-|


Chorus
Guitar I - I can't be bothered to figure out the other part. It has artificial 
>:[ (1:13)
D------------------------------------------------|
A------------------------------------------------|
F------------------------------------------------|
C--0~----8~----10~----2~----0~----8~----7~----3~-|
G--0~----8~----10~----2~----0~----8~----7~----3~-|
C--0~----8~----10~----2~----0~----8~----7~----3~-|


Pickup
Guitar I - (1:33)
D--------------------------------------------------|
A--------------------------------------------------|
F--7--7--7--7--9--9--10-10-12-12-12-12-14-14-14-14-|
C--x--x--x--x--x--x--x--x--x--x--x--x--x--x--x--x--|
G--5--5--5--5--7--7--8--8--10-10-10-10-12-12-12-12-|
C--------------------------------------------------|

Guitar II - (1:33)
D-------------------------------------------------|
A-------------------------------------------------|
F--7--7--7--7--9--9--10-10-9--9--9--9--9--9--9--9-|
C--x--x--x--x--x--x--x--x--x--x--x--x--x--x--x--x-|
G--5--5--5--5--7--7--8--8--7--7--7--7--7--7--7--7-|
C-------------------------------------------------|


Verse
Guitar I & II - (1:35)
D-------------------------------------------------------------|
A-------------------------------------------------------------|
F-------------------------------------------------------------|
C-----------------------------------7p5---------7p5-----7p5---|
G-0-0-1-0-7h8-----5h7-----------------------------------------|
C-0-0-1-0-----0-0-----0-0-0-3-3-3-3-----5-5-5-5-----7-7-------|
PM  .         . .     . . . . . . .     . . . .     . .
D-------------------------------------------------------------|
A-------------------------------------------------------------|
F-------------------------------------------------------------|
C-----------------------------------7p5---------7p5-----------|
G-0-0-1-0-7h8-----5h7-----------------------------------7h8---|
C-0-0-1-0-----0-0-----0-0-0-3-3-3-3-----5-5-5-5-----7-7-------|
PM  .         . .     . . . . . . .     . . . .     . .

Guitar II - (1:46)
D-------------------------------------------------------------|
A-------------------------------------------------------------|
F-------------------------------------------------------------|
C---------5h7-----3h5---------------7p5---------7p5-----7p5---|
G-0-0-1-0-----------------------------------------------------|
C-0-0-1-0-----0-0-----0-0-0-3-3-3-3-----5-5-5-5-----7-7-------|
PM  .         . .     . . . . . . .     . . . .     . .
D-------------------------------------------------------------|
A-------------------------------------------------------------|
F-------------------------------------------------------------|
C---------5h7-----3h5---------------7p5---------7p5-----------|
G-0-0-1-0-----------------------------------------------7h8---|
C-0-0-1-0-----0-0-----0-0-0-3-3-3-3-----2-2-2-2-----7-7-------|
PM  .         . .     . . . . . . .     . . . .     . .


Guitar I & II - (1:56)
D------------------------------------------------|
A------------------------------------------------|
F--7-7-7-7--7-5-5-5-5-5-5-7-7-7-7--7-5-5-5-5-5-5-|
C--7-7-7-7--7-5-5-5-5-5-5-7-7-7-7--7-5-5-5-5-5-5-|
G--5-5-5-5--5-3-3-3-3-3-3-5-5-5-5--5-3-3-3-3-3-3-|
C------------------------------------------------|

D--------------------------------------------------|
A--------------------------------------------------|
F--3-3-3-3--3-3-3-3-3-3-3-3-3----------------------|
C--3-3-3-3--3-3-3-3-3-3-3-3-3-5-5-5-5--5-5-5-5-5-3-|
G--1-1-1-1--1-1-1-1-1-1-1-1-1-5-5-5-5--5-5-5-5-5-3-|
C-----------------------------5-5-5-5--5-5-5-5-5-3-|


Chorus
Guitar I - (2:06)
D------------------------------------------------|
A------------------------------------------------|
F------------------------------------------------|
C--0~----8~----10~----2~----0~----8~----7~----3~-|
G--0~----8~----10~----2~----0~----8~----7~----3~-|
C--0~----8~----10~----2~----0~----8~----7~----3~-|


Bridge thing?
Guitar I - (2:26)
D--------------------------------------------------------------------------|
A--------------------------------------------------------------------------|
F--------------------------------------------------------------------------|
C--------------------------------------------------------------------------|
G------7-8-----5-7-----3-5-----5h7h8-----7-8-----5-7-----7h8-5h7p5-3h5p3-0-|
C--000-----000-----000-----000-------000-----000-----000-------------------|
PM ...     ...     ...     ...       ...     ...     ...

Guitar II - (2:26)
D--------------------------------------------------------------------------|
A--------------------------------------------------------------------------|
F--------------------------------------------------------------------------|
C--0~----------------------------------------------------------------------|
G--0~----------------------------------------------------------------------|
C--0~----------------------------------------SCRAPE!!!-//////////////------|


Guitar I - Twice(2:32)
D--------------------------------------------------------------------------|
A--------------------------------------------------------------------------|
F--------------------------------------------------------------------------|
C--------------------------------------------------------------------------|
G------7-8-----5-7-----3-5-----5h7h8-----7-8-----5-7-----7h8-5h7p5-3h5p3-0-|
C--000-----000-----000-----000-------000-----000-----000-------------------|
PM ...     ...     ...     ...       ...     ...     ...

Guitar II - Twice(2:32)
D--------------------------------------------------------------------------|
A--------------------------------------------------------------------------|
F--------------------------------------------------------------------------|
C------5-7-----3-5-----2-3-----3h5h7-----5-7-----3-5-----5h7-3h5p3-2h3p2-0-|
G--------------------------------------------------------------------------|
C--000-----000-----000-----000-------000-----000-----000-------------------|
PM ...     ...     ...     ...       ...     ...     ...


Guitar I & II - Twice(2:44)
D----------------------------------------------|
A----------------------------------------------|
F----------------------------------------------|
C------4---5---2---4---5-----4---5---2---4---5-|
G----------------------------------------------|
C--222---2---2---2---2---222---2---2---2---2---|
PM ...   .   .   .   .   ...   .   .   .   .

Guitar I - Twice(2:51)                             Second ending
D--------------------------------------------------|---|
A--------------------------------------------------|---|
F--------------------------------------------------|---|
C--------------------------------------------------|-5-|
G--------7---8---5---7-------------7---8-----------|-5-|
C--0-0-0---0---0---0---0-0-0-0-0-0---0---0--3b--2b-|-5-|
PM . . .   .   .   .   . . . . . .   .   .

Guitar II - Twice(2:51)                             Second ending
D--------------------------------------------------|---|
A--------------------------------------------------|---|
F--------------------------------------------------|---|
C--------5---7---3---5-------------5---7-----------|-5-|
G--------------------------------------------------|-5-|
C--0-0-0---0---0---0---0-0-0-0-0-0---0---0--3b--2b-|-5-|
PM . . .   .   .   .   . . . . . .   .   .


Chorus
Guitar I - Twice(3:12)
D------------------------------------------------|
A------------------------------------------------|
F------------------------------------------------|
C--0~----8~----10~----2~----0~----8~----7~----3~-|
G--0~----8~----10~----2~----0~----8~----7~----3~-|
C--0~----8~----10~----2~----0~----8~----7~----3~-|


Guitar I - Six times(3:54)
D--------------------------------------------------|
A--------------------------------------------------|
F--7--7--7--9--9--9--9--9--9--9--9--9--7--7--9--9--|
C--7--7--7--7--7--7--10-10-10-7--7--7--7--7--7--7--|
G--8--8--8--8--8--8--8--8--8--8--8--8--8--8--8--8--|
C--------------------------------------------------|

D--------------------------------------------------|
A--------------------------------------------------|
F--7--7--7--9--9--9--9--9--9--9--9--9--7--7--9--9--|
C--7--7--7--7--7--7--10-10-10-7--7--7--7--7--7--7--|
G--8--8--8--8--8--8--8--8--8--8--8--8--8--8--8--8--|
C--------------------------------------------------|

D--------------------------------------------------|
A--------------------------------------------------|
F--------5-----5--5--------5-----5--5--------5-----|
C--7--7--7--7--7--7--7--7--7--7--7--7--7--7--7--7--|
G--7--7--7--7--7--7--7--7--7--7--7--7--7--7--7--7--|
C--------------------------------------------------|

D--------------------------------------------------|
A--------5-----5-----------5-----5-----5-----------|
F--5--5--5--5--5--5--5--5--5--5--5--5--5--5--5--5--|
C--7--7--7--7--7--7--7--7--7--7--7--7--7--7--7--7--|
G--------------------------------------------------|
C--------------------------------------------------|

Guitar II - twice
D------------------------|
A------------------------|
F------------------------|
C------------------------|
G--00-0000-00--000000-00-|
C--00-0000-00--000000-00-|
PM .. .... ..  ...... ..

D------------------------|
A------------------------|
F------------------------|
C------------------------|
G--00-0000-00--000000-00-|
C--00-0000-00--000000-00-|
PM .. .... ..  ...... ..

D------------------------|
A------------------------|
F------------------------|
C------------------------|
G--33-3333-33--333333-33-|
C--33-3333-33--333333-33-|
PM .. .... ..  ...... ..

D------------------------|
A------------------------|
F------------------------|
C------------------------|
G--55-5555-55--555555-55-|
C--55-5555-55--555555-55-|
PM .. .... ..  ...... ..

Guitar II - Twice(4:20)
D-----------------|
A-----------------|
F-----------------|
C--0~--0~--3~--5~-|
G--0~--0~--3~--5~-|
C--0~--0~--3~--5~-|

And the rest? FUCK IT. I don't really feel like figuring it out, it's not that important anyway.

So, THE END!

It's not perfect but close. I might figure out the rest and change it soon, but probably 
=] Enjoy
Tap to rate this tab
# A B C D E F G H I J K L M N O P Q R S T U V W X Y Z