Song name
# A B C D E F G H I J K L M N O P Q R S T U V W X Y Z

It Dies Today - A Port In Any Storm tab

Help us improve GuitareTab! Take a short survey!
Artist: It Dies Today
Song: A Port in Any Storm
Album: Sirens
Tabber: Johnny1029

This is the second track off of It Dies Today new CD "Sirens". This is only the intro 
I plan on tabbing the whole song here soon. Enjoy.

"." = Palm Mutes
"E" = Eighth notes
"S" = Sixteen notes

Intro

Guitar I
D|-------------------------------------------------|
A|-------------------------------------------------|
F|-------------------------------------------------|
C|-------------------------------------------------|
G|-10-12-0-0-8-8-0-0-2-222222222222-----12---10-12-|
C|-------0-0-8-8-0-0-2-222222222222-0-0----0-------|
    S S  E E E E E E E SSSSSSSSSSSS S S E  S S  S
                                    . .    .
D|-------------------------------------------------|
A|-------------------------------------------------|
F|-------------------------------------------------|
C|-------------------------------------------------|
G|-10-12-0-0-8-8-0-0-3-33333333-------11-10-9------|
C|-------0-0-8-8-0-0-3-33333333-0-0-0---------10-12|
    S S  E E E E E E E SSSSSSSS S S S  S S S   S S
                                . . .
D|-------------------------------------------------|
A|-------------------------------------------------|
F|-------------------------------------------------|
C|-------------------------------------------------|
G|-10-12-0-0-8-8-0-0-2-222222222222-----12---10-12-|
C|-------0-0-8-8-0-0-2-222222222222-0-0----0-------|
    S S  E E E E E E E SSSSSSSSSSSS S S E  S S  S
                                    . .    .
D|-------------------------------------------------|
A|-------------------------------------------------|
F|-------------------------------------------------|
C|-------------------------------------------------|
G|-10-12-0-0-8-8-0-0-3-33333333-------11-10-9------|
C|-------0-0-8-8-0-0-3-33333333-0-0-0---------10-12|
    S S  E E E E E E E SSSSSSSS S S S  S S S   S S
                                . . .

Guitar II
D|-------------------------------------------------|
A|-------------------------------------------------|
F|-12-14----10-10----4-444444444444-----12---12-14-|
C|-------------------------------------------------|
G|-------0-0-8-8-0-0-2-222222222222----------------|
C|-------0-0-----0-0----------------0-0----0-------|
    S S  E E E E E E E SSSSSSSSSSSS S S E  S S  S
                                    . .    .
D|-------------------------------------------------|
A|-------------------------------------------------|
F|-12-14----10-10----5-55555555-------13-12-11-----|
C|--------------------------------------------12-14|
G|-------0-0-8-8-0-0-3-33333333--------------------|
C|-------0-0-----0-0------------0-0-0--------------|
    S S  E E E E E E E SSSSSSSS S S S  S S S   S S
                                . . .
D|-------------------------------------------------|
A|-------------------------------------------------|
F|-12-14----10-10----4-444444444444-----12---12-14-|
C|-------------------------------------------------|
G|-------0-0-8-8-0-0-2-222222222222----------------|
C|-------0-0-----0-0----------------0-0----0-------|
    S S  E E E E E E E SSSSSSSSSSSS S S E  S S  S
                                    . .    .
D|-------------------------------------------------|
A|-------------------------------------------------|
F|-12-14----10-10----5-55555555-------13-12-11-----|
C|--------------------------------------------12-14|
G|-------0-0-8-8-0-0-3-33333333--------------------|
C|-------0-0-----0-0------------0-0-0--------------|
    S S  E E E E E E E SSSSSSSS S S S  S S S   S S
                                . . .
Related for A Port In Any Storm tab