Song name
# A B C D E F G H I J K L M N O P Q R S T U V W X Y Z

It Dies Today - A Constant Reminder tab

This is the inro to the song, A Constant Reminder by,
It Dies Today in the tuning of Drop D. This is my
first Tab so be nice, k?





|-----------------------------------------------------------|
|-----------------------------------------------------------|
|----6h7-6h4----6h7----6h4-44----6h7-6h4----6h7-9-7-6-------|
|-00---------00-----00--------00----------6-----------------|
|-----------------------------------------------------------|
|-----------------------------------------------------------|(x3)

|-----------------------------------------------------------|
|-----------------------------------------------------------|
|----6h7-6h4----6h7----6h4-44----6h7-6h4----6h7-11-9-8------|
|-00---------00-----00--------00----------6-----------------|
|-----------------------------------------------------------|
|-----------------------------------------------------------|
Tap to rate this tab
# A B C D E F G H I J K L M N O P Q R S T U V W X Y Z