Song name
# A B C D E F G H I J K L M N O P Q R S T U V W X Y Z

It Dies Today - Constant Reminder tab

Help us improve GuitareTab! Take a short survey!
normally theyre in drop c but i think they had enough money to buy 7 strings guitar!! :P 
this is in drop b, but i got a 6 string guitar so heres how im tuned: b,gb,b,e,?,?


gtr1                                                          x3
---------------------------------------------------------------------------|
---------------------------------------------------------------------------|
-----9h10p9--------9h10p9---9--777-----9h10p9-------9h10---12-10-9---------|
-0-0--------10-0-0--------0--------0-0--------10-0-0------0--0--0----------|
---------------------------------------------------------------------------|
---------------------------------------------------------------------------|

gtr2                                                         x3
---------------------------------------------------------------------------|
---------------------------------------------------------------------------|
---------------------------------------------------------------------------|
---------------------7-----------------------------------------------------|
-8---------5---------5-----------8---------5----------0--------------------|
-8---------5---------------------8---------5----------0--------------------|

gtr 1                         x1
--------------------------------------------------------------------------|
--------------------------------------------------------------------------|
-----9h10p9--------10h12--13-12-10----------------------------------------|
-0-0--------10-0-0-------0--0--0------------------------------------------|
--------------------------------------------------------------------------|
--------------------------------------------------------------------------|

gtr2
--------------------------------------------------------------------------|
--------------------------------------------------------------------------|
--------------------------------------------------------------------------|
--------------------6-----------------------------------------------------|
-8---------4--------4-----------------------6-0--5------------------------|
-8---------4---------------------000-000-0--6-0----7---8-7-5--------------|


srry thats all i got for the moment i want to know it perfectly before i tab the rest of 
song but at least u know the intro
Related for Constant Reminder tab