Song name
# A B C D E F G H I J K L M N O P Q R S T U V W X Y Z

It Dies Today - Reignite The Fires tab

-----------------------------------------------------------------------
            Reignite The Fires – It Dies Today
----------------------------------------------------------------------
Tabbed by: XxcriesinvainxX
Email: Indcolts674@aim.com

Tuning: B F# B E G# C#
Ok so there is a verse, 2nd verse, a chorus, and a 3rd verse or Breakdown (the 2nd verse 
really a verse, just a fill) so I will put 4 parts in this tab and you guys can just 
them when they sound in the song
I will have all the tab in here though

Guitar I VERSE 1
C#||-----------------------------------------------------------|
G#||-----------------------------------------------------------|
E ||-----------------------------------------------------------|
B ||-------------------------------------7-------3--------5-5-5|
F#||----------------87------7---------5-5-5-3----3----5---3-3-3|
B ||000-0-000-0-0-0---0-0-0---0-0-0-0---------0-0-0-0-5-0-3-3-3|

C#||-----------------------------------------------------------|
G#||-----------------------------------------------------------|
E ||-----------------------------------------------------------|
B ||-------------------------------------5-------3--------8-8-8|
F#||----------------87------7---------3-3-3-5----3----5---8-8-8|
B ||000-0-000-0-0-0---0-0-0---0-0-0-0---------0-0-0-0-5-0-8-8-8|

Guitar II VERSE 1

C#||-----------------------------------------------------------|
G#||-----------------------------------------------------------|
E ||-----------------------------------------------------------|
B ||----------------75------5------------10------3--------5-5-5|
F#||----------------------------------8-8—-8-7---3----5---3-3-3|
B ||000-0-000-0-0-0---0-0-0---0-0-0-0---------0-0-0-0-5-0-3-3-3|

C#||-----------------------------------------------------------|
G#||-----------------------------------------------------------|
E ||-----------------------------------------------------------|
B ||----------------75------5------------8-------3--------8-8-8|
F#||----------------------------------7-7—-7-8---3----5---8-8-8|
B ||000-0-000-0-0-0---0-0-0---0-0-0-0---------0-0-0-0-5-0-8-8-8|

Guitars I and II VERSE 2

C#||-----------------------------------------------------------|
G#||-----------------------------------------------------------|
E ||-----------------------------------------------------------|
B ||3p0-3p0-----------------------3p0-3p0----------------------|
F#||3p0-3p0-----------------------3p0-3p0----------------------|
B ||3p0-3p0-0-0-0-0-0-0-0-0-0-0-0-3p0-3p0-0-0-0-0-0-0-0-0-0-0-0|

C#||---------------------------------------------------------------|
G#||---------------------------------------------------------------|
E ||---------------------------------------------------------------|
B ||---------------------------------------------------------------|
F#||---------------------------------------------------------------|
B ||000-0-000-0-0-0-0-0-0-0-0-0-0-0-000-0-000-0-0-0-0-0-0-0-0-0-0-0|

C#||-----------------------------------------------------------|
G#||-----------------------------------------------------------|
E ||-----------------------------------------------------------|
B ||3p2-3p2-----------------------3p2-3p2----------------------|
F#||3p2-3p2-----------------------3p2-3p2----------------------|
B ||3p2-3p2-2-2-2-2-2-2-2-2-2-2-2-3p2-3p2-2-2-2-2-2-2-2-2-2-2-2|

C#||---------------------------------------------------------------|
G#||---------------------------------------------------------------|
E ||---------------------------------------------------------------|
B ||---------------------------------------------------------------|
F#||---------------------------------------------------------------|
B ||000-0-000-0-0-0-0-0-0-0-0-0-0-0-000-0-000-0-0-0-0-0-0-0-0-0-0-0|

Guitars I and II CHORUS

I wont be too specific on whether you hold it or not or how many times you strum 
but the notes are all there so listen to the song
C#||-------------------------------------------------|
G#||-------------------------------------------------|
E ||-------------------------------------------------|
B ||3h5-3h5-0-0-3h5-3h5-0-0-8-8-3h5-3h5-0-0-10-10-8-8|
F#||3h5-3h5-0-0-3h5-3h5-0-0-8-8-3h5-3h5-0-0-10-10-8-8|
B ||3h5-3h5-0-0-3h5-3h5-0-0-8-8-3h5-3h5-0-0-10-10-8-8|
Don’t forget the split second rest after the hammer ons the second time through


Guitars I and II VERSE 3 (BREAKDOWN)
Fill before the Breakdown
C#||-----------------------------------------------------------|
G#||-----------------------------------------------------------|
E ||-----------------------------------------------------------|
B ||3p0-3p0-----------------------3p0-3p0----------------------|
F#||3p0-3p0-----------------------3p0-3p0----------------------|
B ||3p0-3p0-0-0-0-0-0-0-0-0-0-0-0-3p0-3p0-0-0-0-0-0-0-0-0-0-0-0|

C#||-----------------------------------------------------------|
G#||-----------------------------------------------------------|
E ||-----------------------------------------------------------|
B ||3p0-3p0-----------------------3p0-3p0----------------------|
F#||3p0-3p0-----------------------3p0-3p0----------------------|
B ||3p0-3p0-0-0-0-0-0-0-0-0-0-0-0-3p0-3p0-0-0-0-0-0-0-0-0-0-0-0|

Guitars I and II BREAKDOWN

C#||-----------------------------------------------------|
G#||-----------------------------------------------------|
E ||----------------------------7\\------5---------------|
B ||------------------035---356-x\\------5-6-------------|
F#||3p0---3p0---------035---356-5\\------3-6--3----------|
B ||3p0-0-3p0-0-0-0-0-035-0-356-----0-0-0--6----5-3bb----|

C#||--------------------------------------------|
G#||--------------------------------------------|
E ||--------------------------------------------|
B ||3p0---3p0---------035-356—-3--5--3--6-------|
F#||3p0---3p0---------035-356—-3--5--3--6----3h5|
B ||3p0-0-3p0-0-0-0-0-035-356—-3--5--3--6-3h5---|


This is the order for the song

VERSE 1
VERSE 2
VERSE 1
CHORUS
VERSE 2
VERSE 1
CHORUS
VERSE 3
CHORUS
VERSE 3

I HOPE THIS TAB HAS HELPED YOU OUT. IM PRETTY SURE ABOUT EVERYTHING BUT IF YOU HAVE SOME 
OR SOME CORRECTIONS PLEASE LET ME KNOW THROUGH AN EMAIL OR IM OR SOMETHING AND ILL 
IT.

| /  slide up
| \  slide down
| h  hammer-on
| p  pull-off
| ~  vibrato
| +  harmonic
| x  Mute note
Tap to rate this tab
# A B C D E F G H I J K L M N O P Q R S T U V W X Y Z