Guitaretab - guitar tabs
Song name
# A B C D E F G H I J K L M N O P Q R S T U V W X Y Z

Itchy Poopzkid - Said Youd Be There tab

E[------------------------------------------------------------------] 
B[------------------------------------------------------------------] 
G[--------------6-6---------6666666688888888999999991111111111111111] 
D[11------------x-x---------xxxxxxxxxxxxxxxxxxxxxxxxxxxxxxxxxxxxxxxx] 
A[11------------4-4---------4444444466666666777777779-9-9-9-9-9-9-9-] 
E[9-----------------------------------------------------------------] 

E[------------------------------------------------------------------] 
B[------------------------------------------------------------------] 
G[------------------------------------------------------------------] 
D[11-1111----11-1111----6666666655552222----------------------------] 2x
A[11-1111----11-1111----6666666655552222----------------------------] 
E[9--9-9-----9--9-9-----4444444433330000----------------------------] 
[ Tab from: http://www.guitaretab.com/i/itchy-poopzkid/112714.html ]
E[-------------------------------------------] 
B[-------------------------------------------] 
G[-666618181818-666618181818-6666666655552222] 
D[-666618181818-666618181818-6666666655552222] <--- "I'm not sure,
A[-444416161616-444416161616-4444444433330000]       but anything in this
E[-------------------------------------------]       way, i think."


C#                       C#     
See the pain and broken needels in our eyes? 
               C#
Come watch us bleed, come watch us pant 
         C#                              H   F#
nevertheless youíre gonna see us hand in hand.

C#                    C#
Broken promises and suffocating lies.
           C#
We didnít break, so now comply, 
            C#                       H   F# 
It must be horrible to go down as we rise! 

C#  H              F#
You said you would be there
    A                   C#
But where are you right now?
    H              F#       A G#
You said you would be there.
C#  H              F# 
You said you would be there
    A                C#
But all you are is a fake
    H   E           F#
and you ainít worth attention.

sry no time but I finished this =)
I hope it's right



Related for Said Youd Be There tab