Song name
# A B C D E F G H I J K L M N O P Q R S T U V W X Y Z

Itchy Poopzkid - Breathing tab

Itchy Poopzkid 
Breathing - Verse
Album : Time to Ignite (2007)
Words and Music by Itchy Poopzkid 

This is Only The Verse!!!!!!!!!!!


Verse 1 :         2 Times

E|-----------------------------------------|--------------------------------------------|
H|-----7----7--------7----7--7--7--7----7--|----10----10------10--10-10-10-10-10---10---|
G|-----6----6--------6----6--6--6--6----6--|----9-----9-------9----9--9--9--9--9----9---|
D|-----4----4--------4----4--4--4--4----4--|----7-----7-------7----7--7--7--7--7----7---|
A|-----------------------------------------|--------------------------------------------|
E|-----------------------------------------|--------------------------------------------|


E|-----------------------------------------|---------------------------------------------------|
H|-----5----5--------5----5--5--5--5----5--|----5----5---------5----5--5--5--5--5--6--6--6-----|
G|-----4----4--------4----4--4--4--4----4--|----4----4---------4----4--4--4--4--4--5--5--5-----|
D|-----2----2--------2----2--2--2--2----2--|----2----2---------2----2--2--2--2--2--3--3--3-----|
A|-----------------------------------------|---------------------------------------------------|
E|-----------------------------------------|---------------------------------------------------|


Verse 2 :

E|--------------------------------------------|--------------------------------------------|
H|---------7----------------7---------------|-----------10-----------------10--------------|
G|------6----6-----------6----6-------------|--------9------9------------9-----9-----------|
D|---4----------------4---------------------|-----7-------------------7--------------------|
A|------------------------------------------|----------------------------------------------|
E|------------------------------------------|----------------------------------------------|


E|------------------------------------------|----------------------------------------------|
H|-----------5---------------5--------------|----------5------------------5----------------|
G|--------4----4---------4-----4------------|-------4------4----------4------4-------------|
D|-----2--------------2---------------------|----2-----------------2-----------------------|
A|------------------------------------------|----------------------------------------------|
E|------------------------------------------|----------------------------------------------|



E|-----------------------------------------|---------------------------------------------------|
H|-----7----7--------7----7--7--7--7----7--|----10---10--------10----10-10-10-10-10-----10-----|
G|-----6----6--------6----6--6--6--6----6--|----9-----9---------9----9--9--9---9--9-----9------|
D|-----4----4--------4----4--4--4--4----4--|----7-----7---------7----7--7--7---7--7-----7------|
A|-----------------------------------------|---------------------------------------------------|
E|-----------------------------------------|---------------------------------------------------|


E|-----------------------------------------|----------------------------------------------------|
H|-----5----5--------5----5--5--5--5----5--|----5----5---------5----5--5--5--5--5--6--6--6------|
G|-----4----4--------4----4--4--4--4----4--|----4----4---------4----4--4--4--4--4--5--5--5------|
D|-----2----2--------2----2--2--2--2----2--|----2----2---------2----2--2--2--2--2--3--3--3------|
A|-----------------------------------------|----------------------------------------------------|
E|-----------------------------------------|----------------------------------------------------|




Who can you count on and whose smile can you trust now
Ignorance is bliss, the dumb ones never miss anything at all
But Im not jealous somehow, tonight Im fine with me and so grateful to see

I breathe in and these walls keep crashing down
But they wont get me cause I learned how to set me free and.
I breathe in and my feet are losing ground
But Ill find the door cause I know what Im fighting for

Rage and hate rotate while I put on my best shoes 
Id better tie them well- the floor is rough in hell
Lets unearth the truth and I refrain from laughter
Id rather face the facts than to paper over the cracks

I breathe in and these walls keep crashing down
But they wont get me cause I learned how to set me free and.
I breathe in and my feet are losing ground
But Ill find the door cause I know what Im fighting for

Dont forget to breathe out
Theres something in the air that fills me with despair
But no need to pipe down
Inhale and sing along; I will get it done

I breathe in and these walls keep crashing down
But they wont get me cause I learned how to set me free and
I breathe in and my feet are losing ground
But Ill find the door cause I know what Im fighting for


it's only a bit but it may help you
;-)

if you're also a big fan of this f**kin' awesome group and you want to chat about them
 or stuff like that  mail me @ cryzhadryz @gmx.de 
Tap to rate this tab
# A B C D E F G H I J K L M N O P Q R S T U V W X Y Z