Guitaretab - guitar tabs
Song name
# A B C D E F G H I J K L M N O P Q R S T U V W X Y Z

Itchy Poopzkid - Silence Is Killing Me tab

               
                Itchy Poopzkid - Silence is killing me
        
Well Im not sure about the second guitar but Im sure its better than the other tab of this song.

     Tuning: E A D G B e (normal)

 Intro & 1st Verse 

   First Guitar 
e|---------------------------------------------------------------------------|
B|---------------------------------------------------------------------------|
G|---------------------------------------------------------------------------|
D|---------------4-----------------------------------------------------------|
A|-(xxx)--2h4------2h4-7764--------------------------------------------------|
E|-(xxx)-------2-------------------------------------------------------------|
    
    
   Background Guitar (comes in when the he begins to sing)
e|---------------------------------------------------------------------------|
B|--------7-7-7-7-7-7-7-7-7--------------------------------------------------|
G|--------6-6-6-6-6-6-6-6-6--------------------------------------------------|
D|---------------------------------------------------------------------------|
A|---------------------------------------------------------------------------|
E|---------------------------------------------------------------------------|

   Pre-Chorus 

   First Guitar 
e|---------------------------------------------------------------------------|
B|---------------------------------------------------------------------------|
G|-----------22222222-44444444-66666666--------------------------------------|
D|--44444444-22222222-44444444-66666666--------------------------------------|
A|--44444444-00000000-22222222-44444444--------------------------------------|
E|--22222222-----------------------------------------------------------------|

   Background Guitar
e|---------------------------------------------------------------------------|
B|---------------------------------------------------------------------------|
G|---------------------------------------------------------------------------|
D|----------4----------------------------------------------------------------|
A|---2h4------2h4-7764-------------------------------------------------------|
E|--------2------------------------------------------------------------------|
   let ring 
   
  Chorus ( just play the part in the () the first time )
[ Tab from: http://www.guitaretab.com/i/itchy-poopzkid/86552.html ]
e|---------------------------------------------------------------------------|
B|---------------------------------------------------------------------------|
G|--44444444--------------------44444444-------------------------------------|
D|--44444444-44444444-777777777-44444444-(44444444)--------------------------|
A|--22222222-44444444-777777777-22222222-(44444444)--------------------------|
E|-----------22222222-555555555----------(22222222)--------------------------|
   ( just play the part in the () the first time )
    
  Verse 

e|---------------------------------------------------------------------------|
B|-------------------------[-5--4-]------------------------------------------|
G|-------------------------[-4--3-]------------------------------------------|
D|-----------4---------------------------------------------------------------|
A|---2h4-------(2h4-7764)----------------------------------------------------|
E|--------2------------------------------------------------------------------|
    Play this 2 times then play instead of the()part the[]part...


  Pre Chorus 
  Chorus 
   
 
  Solo ( use your wha-wha pedal )
  
e|---------------------------------------------------------------------------|
B|---------------------------------------------------------------------------|
G|--11-9----------------11-9------6~---11-9---------------------------9-11~--|
D|-------11-9-8/9-11~-9------11-9-8~--------11-9-8-11~-8--9-0-10-0-11--------|
A|---------------------------------------------------------------------------|
E|---------------------------------------------------------------------------|
 
  Pre-Chorus
  Chorus
  
    Outro

   First Guitar 
e|---------------------------------------------------------------------------|
B|---------------------------------------------------------------------------|
G|---------------------------------------------------------------------------|
D|----------4----------------------------------------------------------------|
A|---2h4-------2h4-7764------------------------------------------------------|
E|--------2------------------------------------------------------------------|
 
 Second Guitar (just the last two times)
e|---------------------------------------------------------------------------|
B|---------------------------------------------------------------------------|
G|----------4----------------------------------------------------------------|
D|--2h4-----4--2h4--7764-----------------------------------------------------|
A|-------2-------------------------------------------------------------------|
E|---------------------------------------------------------------------------|



| /  slide up
| \  slide down
| h  hammer-on
| p  pull-off
| ~  vibrato
| +  harmonic
| x  Mute note
===============================================================================
Related for Silence Is Killing Me tab