Song name
# A B C D E F G H I J K L M N O P Q R S T U V W X Y Z

Itchy Poopzkid - Lyrically Happy tab

Help us improve GuitareTab! Take a short survey!
-------------------------------------------------------------------------------
			  Lyrically happy  - Itchy Poopzkid
-------------------------------------------------------------------------------
Tabbed by:Masterohumans


Tuning:standard
Verse 1(X5)
e|---------------------------------------------------------------------------|
B|---------------------------------------------------------------------------|
G|---------------------------------------------------------------------------|
D|---------------------------------------------------------------------------|
A|---------------------------------------------------------------------------|
E|-6-6-6-6-6h7-7-7-7-7p6-6-6-6-6-6-7-8-9-10----------------------------------|
                   (x2)
e|-----------------------------------------------------------------------------|
B|-----------------------------------------------------------------------------|
G|-----------------------------------------------------------------------------|
D|-5--------5-5-5-5-8-8-8-5-5-5-5-5-8-8-8-8-8----------------------------------|
A|-5--------5-5-5-5-8-8-8-5-5-5-5-5-8-8-8-8-8----------------------------------|
E|-3--------3-3-3-3-6-6-6-3-3-3-3-3-6-6-6-6-6----------------------------------|

e|-----------------------------------------------------------------------------|
B|-----------------------------------------------------------------------------|
G|-5-8-5-8-8-8-8-8-------------------------------------------------------------|
D|-5-8-5-8-8-8-8-8-------------------------------------------------------------|
A|-3-6-3-6-6-6-6-6-7h6-7h6-7h6-7-8-9-7h6-7h6-6-6-x-x-x-------------------------|
E|-----------------------------------------------------------------------------|
Verse 2 (its a little diffrent)
e|-----------------------------------------------------------------------------|
B|-----------------------------------------------------------------------------|
G|-----------------------------------------------------------------------------|
D|-----------------------------------------------------------------------------|
A|-----------------------------------------------------------------------------|
E|4-4-4-4-4h5-5-5-5-5-5p4-4-4-4-4-4p5-5-4-4-4-4-4h5-5-5-5-5p4-4-4-4-5-5-5-5----|
  (x2)
e|-----------------------------------------------------------------------------|
B|-----------------------------------------------------------------------------|
G|-----------------------------------------------------------------------------|
D|-----------------------------------------------------------------------------|
A|-----------------------------------------------------------------------------|
E|4-4-4-4-4h5-5-5-5p4-4-4-4-4-5-6-7-8------------------------------------------|

  Chorus(x2)
e|-----------------------------------------------------------------------------|
B|-----------------------------------------------------------------------------|
G|-----------------------------------------------------------------------------|
D|-5--------5-5-5-5-8-8-8-5-5-5-5-5-8-8-8-8-8----------------------------------|
A|-5--------5-5-5-5-8-8-8-5-5-5-5-5-8-8-8-8-8----------------------------------|
E|-3--------3-3-3-3-6-6-6-3-3-3-3-3-6-6-6-6-6----------------------------------|

Interlude (x4)                                2nd time     4th time
e|-----------------------------------------------x---------------------------|
B|-----------------------------------------------x-----------9-10-11---------|
G|-----------------------------------------------x----------8----------------|
D|-5-5-5-5-8-8-8-8-8-----------------------------x---------------------------|
A|-5-5-5-5-8-8-8-8-8-----------------------------x---------------------------|
E|-3-3-3-5-6-6-6-6-6-----------------------------x---------------------------|
Outro (x2)
e|---------------------------------------------------------------------------|
B|---------------------------------------------------------------------------|
G|---------------------------------------------------------------------------|
D|---------------------------------------------------------------------------|
A|---------------------------------------------------------------------------|
E|-6-6-6-6-6h7-7-7-7-7p6-6-6-6-6-6-7-8-9-10----------------------------------|

  (x2)
e|-----------------------------------------------------------------------------|
B|-----------------------------------------------------------------------------|
G|-----------------------------------------------------------------------------|
D|-5--------5-5-5-5-8-8-8-5-5-5-5-5-8-8-8-8-8----------------------------------|
A|-5--------5-5-5-5-8-8-8-5-5-5-5-5-8-8-8-8-8----------------------------------|
E|-3--------3-3-3-3-6-6-6-3-3-3-3-3-6-6-6-6-6----------------------------------|

e|---------------------------------------------------------------------------|
B|---------------------------------------------------------------------------|
G|-5-8-5-8-8-8-8-8-----------------------------------------------------------|
D|-5-8-5-8-8-8-8-8-----------------------------------------------------------|
A|-3-6-3-6-6-6-6-6-----------------------------------------------------------|
E|---------------------------------------------------------------------------|


| /  slide up
| \  slide down
| h  hammer-on
| p  pull-off
| ~  vibrato
| +  harmonic
| x  Mute note
===============================================================================
Related for Lyrically Happy tab