Guitaretab - guitar tabs
Song name
# A B C D E F G H I J K L M N O P Q R S T U V W X Y Z

Itchy Poopzkid - Take Me Bac tab

____________________________
|Itchy Poopzkid - Take Me Back|

tabbed by cryzhadryz@gmx.de

Drop D ( D | A | D | G | H | E )
This Is an Awsome Song  !!!

Main Riff :


                            D                                                      #A
E|------------------------|------------------------|------------------------|------------------------|
H|------------------------|------------------------|------------------------|------------------------|
G|------------------------|------------------------|------------------------|------------------------|
D|0---0------0---0------0-|0---0------0---0------0-|8---8------8---8------8-|8---8------8---8------8-|
A|0---0------0---0------0-|0---0------0---0------0-|8---8------8---8------8-|8---8------8---8------8-|
D|0---0------0---0------0-|0---0------0---0------0-|8---8------8---8------8-|8---8------8---8------8-|


                              F                                        C
E|------------------------|------------------------|------------------------|-----------------------------|
H|------------------------|------------------------|------------------------|-----------------------------|
G|------------------------|------------------------|5---5------5---5------5-|-----------------------------|
D|3---3------3---3------3-|3---3------3---3------3-|5---5------5---5------5-|7---7---7---7---7---7---7---7|
A|3---3------3---3------3-|3---3------3---3------3-|3---3------3---3------3-|7---7---7---7---7---7---7---7|
D|3---3------3---3------3-|3---3------3---3------3-|------------------------|7---7---7---7---7---7---7---7|


Verse 1 (In Both Verses everything is Palm Muted except for the A's) :

             D
Standing on the Edge I used to
            #A
Dive into the Dark
              F
Knowing Someone's there
        C                    A
who understands


             D
Nothing Weighing on my Shoulder
            #A
Not a thing to Fear
              F
I never had a Reason
      C               A
To look Back


              F
But now I'm Scared Of
      C                  A
Everything Ahead


Refrain :

              D
Come on just take me back my memories
             #A
  fading out
             F
Show me where
       C             A
we used to be


              D
Take me back I canít re-
             #A
member how
               F
We felt inside of
   C                 A
Me


Verse 2 :

                   D
The days are gone when it al felt like
                 #A
Time was standing still
                   F
The days are gone when everything felt
     C              A
save


                D
More and more reality just
              #A
makes me more afraid
                 F
And truth is getting harder every-
     C              A
day


                 F
I wish someone would
      C             A
just take me away


Refrain :


              D
 Take me back my memories
             #A
  fading out
             F
Show me where
      C            A
we used to be


              D
Take me back I canít re-
             #A
member how
               F
We felt inside of
       C              A
Me

[ Tab from: http://www.guitaretab.com/i/itchy-poopzkid/93533.html ]
Bridge :

             D
Take me back show
            #A
Me the way
             F
Just make me feel at
      C              A
Home

             D
Take me back show
           #A
Me the way
              F
I need to feel at
          C               A
 Home

E|----------------------------------|----------------------------------------|
H|------------------------------6---|-----------------------------5----------|
G|------------------------------7---|-----------------------------7----------|
D|---0---0------0---0------0--------|--0---0------0---0------0---------------|
A|---0---0------0---0------0--------|--0---0------0---0------0---------------|
D|---0---0------0---0------0--------|--0---0------0---0------0---------------|

G|----------------------------------|------------------------------------------|
H|------------------------------6---|----------------------------6---8---5p6h5-|
E|------------------------------7---|----------------------------7---7---7-----|
D|---0---0------0---0------0--------|--0---0------0---0------0-----------------|
A|---0---0------0---0------0--------|--0---0------0---0------0-----------------|
D|---0---0------0---0------0--------|--0---0------0---0------0-----------------|


E|----------------------------------|----------------------------------------|
H|------------------------------6---|-----------------------------5----------|
G|------------------------------7---|-----------------------------7----------|
D|---0---0------0---0------0--------|--0---0------0---0------0---------------|
A|---0---0------0---0------0--------|--0---0------0---0------0---------------|
D|---0---0------0---0------0--------|--0---0------0---0------0---------------|

G|----------------------------------|-----------------------------------------|
H|------------------------------6---|------------------------------6---8---5--|
E|------------------------------7---|------------------------------7---7---7--|
D|---0---0------0---0------0--------|--0---0------0---0------0----------------|
A|---0---0------0---0------0--------|--0---0------0---0------0----------------|
D|---0---0------0---0------0--------|--0---0------0---0------0----------------|


Refrain :


             D                                 \
Take me back my memories                       |
         #A                                    |
Fading out                                     |
             F                                  >    Everything Palm Muted
Show me where                                  |
      C           A                            |
We used to be                                  |
                                               /

              D
Take me back I canít re-
             #A
member how
               F
We felt inside of
        C                      A
Me


Bridge :

             D
Take me back show
            #A
Me the way
             F
Just make me feel at
          C                A
Home

             D
Take me back show
           #A
Me the way
              F
I need to feel at
          C               A
 Home


Last Chord  :             D


for any Corrections mail me @ cryzhadryz@gmx.de
Related for Take Me Bac tab