Song name
# A B C D E F G H I J K L M N O P Q R S T U V W X Y Z

Itchyworms - Beer tab

beer:

tabber:axl

legend:
h-hammer on
/-slide
v-vibrate
b-bend

intro
e-----------------------------------------------------------------------|
b-----------------10/12----------12-12--------------12--10-10h12-10-----|
g------7h9/11----9---------7h9/11-----12-12-9-8-9-14--12-----------13---|
d-7-7/9------10-9------10-9---------------------------------------------|
a-----------------------------------------------------------------------|
e-----------------------------------------------------------------------|


solo
e--------------------10/12--14-15-17-15-14-------|
b-------8-12-12-10-8-----------------------17-15-|
g----7h9------------9----------------------------|
d-7h9--------------------------------------------|
a------------------------------------------------|
e------------------------------------------------|


e------------------------------------------------|
b-15-----15--15/17-15-15--15-13------------------|
g---14-16--16------------------15-12--14b-14b----|
d-----------------------------------14-----------|
a------------------------------------------------|
e------------------------------------------------|

e----------------------------------------------------|
b----------------------------------------------------|
g-14/16-14-14-12-12-----12-14/16-14-14-12-12-----12--|
d------------------14-14--------------------14-14----|
a----------------------------------------------------|
e----------------------------------------------------|

e--------------------------------------------|
b--------------------------------------------|
g-14/16-14-12-14/16-14-12-14/16-17v----------|
d--------------------------------------------|
a--------------------------------------------|
e--------------------------------------------|

e2 ung bago mag outro
e-------------------10-12-12b-10h12-10----|
b-----------------11----------------------|
g----7-9b-7-9-7---------------------------|
d-7h9-------------------------------------|
a-----------------------------------------|
e-----------------------------------------|

sa outro ung intro pareho lang..

kung me mga matanung kau email nu lang sa email ko
axlrose_slash13@yahoo.com
Tap to rate this tab
# A B C D E F G H I J K L M N O P Q R S T U V W X Y Z