Song name
# A B C D E F G H I J K L M N O P Q R S T U V W X Y Z

Itchyworms - Bugbog-sarado tab

Title      :	Bugbog-Sarado
Artist     :	Itchyworms
Album      :	Self-Titled

For any Comments and Suggestions:

Text Me:     09082360710/09156169501
Email Me:    jhenson_21@rocketmail.com
Friendster:  boybassista@yahoo.com


 *Hello po sa mga klasmyt ko Bsn-2 Sec 2. BAtch 2008-2009... LApit na tayo magduty...hehehe.. 


Tuning: Standard

e--------7------10---------------------------------------------------------------|
b-8---8-----10-------12------------------------------12h10h12h10-----------------|
g---7-------------------12--12-11--9\7---------7h9h7----------------12h11--------|
D--------------------------------------(7)-7h9----------------------------12-----|
A--------------------------------------------------------------------------------|
E--------------------------------------------------------------------------------|

Verse 1:

 (G)               Am
Gets mo ba na di na kita mahal

       C               D          G
Wala nang saysay ang relationship natin

       Em                   Am
Ikaw ang nagpapahirap sa buhay ko 

      C        D         G      
Mabuti pa wag na natin isipin


Refrain 1:

      A7  C    G         A7   C         G         
Yan ang sabi mo sakin, wag na sanang uulitin

Chorus:

    C      G       D        C       G       D
Kailan mo ko patatawarin, bugbog sarado ang damdamin

  C      G          D       C    G               Am                     
Ang hirap mong paligayahin, bugbog sarado ang damdamin

        D
hooooh....sayo...

Intro: G-D-Em-C

e--------7------10---------------------------------------------------------------|
b-8---8-----10-------12------------------------------12h10h12h10-----------------|
g---7-------------------12--12-11--9\7---------7h9h7----------------12h11--------|
D--------------------------------------(7)-7h9----------------------------12-----|
A--------------------------------------------------------------------------------|
E--------------------------------------------------------------------------------|

Verse 2:

  G                  Am           C                D         G
Obvious na my issue ka bang iba,Di na sanay na pinagsasabihan ka

  Em                   Am        C          D          G
Inuugat mo laging ang nakaraan,para lumabas na ikaw ang tama

Refrain 2:

 A7    C      G         A7    C           G
Di ka ba nahihirapan, Kadidi lang ang kasalanan

Repeat Chorus:

Refrain 2:

 A7                 C             G                         D
Bakit ba ganyan ang singles, ineexxage ang mga may may long bittles

Adlib:

e----------6p5--8p6--10p8--8p10--6p8--5p6------------------------|
b--8----8---------------------------------5h7-8h10-7h8-----------|
g----7-------------------------------------------------8h7-5/7---|
D----------------------------------------------------------------|
A----------------------------------------------------------------|
E----------------------------------------------------------------|

Repeat Refrain 2:

Repeat chorus:

Intro:

e--------7------10---------------------------------------------------------------|
b-8---8-----10-------12------------------------------12h10h12h10-----------------|
g---7-------------------12--12-11--9\7---------7h9h7----------------12h11--------|
D--------------------------------------(7)-7h9----------------------------12-----|
A--------------------------------------------------------------------------------|
E--------------------------------------------------------------------------------|

*If you want to Learn How to Read Tabs Just Text me: 09082360710/09156169501

www.ultimate-guitar.com

'=================='
/   RoCk En RoLL   \
'------------------'


Tap to rate this tab
# A B C D E F G H I J K L M N O P Q R S T U V W X Y Z