Song name
# A B C D E F G H I J K L M N O P Q R S T U V W X Y Z

Itchyworms - Akin Ka Na Lang tab

-------------------------------------------------------------------------------
			     Akin ka na lang - Itchyworms
-------------------------------------------------------------------------------
Tabbed by:Al Hilado
Email:drakenguard99@yahoo.com

e2 po yung tab ng akin ka nalng by the itchy 
worms
medyo tricky po ang strumming patterns nito
hope u like it..

Hi nga po pala sa mga taga HCDC 
ang mga taga dabaw tisoyy hahaha jowk..

well gud luk..

Tuning:standard

Intro:                                      
e|---------------------------------5-x-5-|
B|---------------------------------6-x-6-|
G|----------------------5----------7-x-7-|
D|-5----------9---------5----------7-x-7-|
A|-5----------9---------3----------------|
E|-3----------7--------------------------|
 |                                 ^   ^
 |
e|----------------------------------------|
B|----------------------------------------|
G|-------12---14h15-12---------12-12-x-12-|
D|-12h14-----------------12h14------------|
A|----------------------------------------|
E|----------------------------------------|
                                   
e|---------------------------------5-x-5-|
B|---------------------------------6-x-6-|
G|----------------------5----------7-x-7-|
D|-5----------9---------5----------7-x-7-|
A|-5----------9---------3----------------|
E|-3----------7--------------------------|
 |                                 ^   ^
 |
e|----------------------------------------|
B|----------------------------------------|
G|-------12---14h15-12---------12-12-x-12-|
D|-12h14-----------------12h14------------|
A|----------------------------------------|
E|----------------------------------------|

e|----------------------------------------|
B|----------------------------------------|
G|---------------------------9--7---------|
D|-5----------9--------------9--7---------|
A|-5----------9--------------7--5---------|
E|-3----------7---------------------------|
 |
 |
e|----------------------------------------|
B|----------------------------------------|
G|-------12---14h15-12-------9--7---------|
D|-12h14---------------------x--x---------|
A|---------------------------7--5---------|
E|----------------------------------------|

verse:

Verse 1:
G     Bm       C    D           
 'Wag kang maniwala d'yan
G              Bm      C  D
 'Di ka n'ya mahal talaga
G       Bm       C     D         G          Bm         C  D
 Sayang lang ang buhay mo kung mapupunta ka lang sa kanya
Em  Em/D#          Em/D             C#m
   Iiwanan ka lang n'yan, mag-ingat ka
C          Bm           Cm                D
 Dagdag ka lamang sa milyun-milyong babae n'ya

Chorus:
G           Bm                 C
 Akin ka na lang (akin ka na lang)
         D            G
Iingatan ko ang puso mo
           Bm                 C
Akin ka na lang (akin ka na lang)
  D
Wala nang hihigit pa sa 'yo

Interlude:

e|---------------------------------5-x-5-|
B|---------------------------------6-x-6-|
G|----------------------5----------7-x-7-|
D|-5----------9---------5----------7-x-7-|
A|-5----------9---------3----------------|
E|-3----------7--------------------------|
 |                                 ^   ^
 |
e|----------------------------------------|
B|----------------------------------------|
G|-------12---14h15-12---------12-12-x-12-|
D|-12h14-----------------12h14------------|
A|----------------------------------------|
E|----------------------------------------|

e|----------------------------------------|
B|----------------------------------------|
G|---------------------------9--7---------|
D|-5----------9--------------9--7---------|
A|-5----------9--------------7--5---------|
E|-3----------7---------------------------|
 |
 |
e|----------------------------------------|
B|----------------------------------------|
G|-------12---14h15-12-------9--7---------|
D|-12h14---------------------x--x---------|
A|---------------------------7--5---------|
E|----------------------------------------|

G     Bm    C    D
 Di naman ako bolero
  G         Bm     C D
Katulad ng ibang tao
G        Bm      C      D
 Ang totoo'y pag nandyan ka
        G          Bm   C D
Medyo nabubulol pa nga ako
Em    Em/D#              Em/D
  Malangis lang ang dila nyan
             C#m
Wag kang padala
C               Bm
 Dahan-dahan ka lang
       Cm              D
Baka pati ika'y mabiktima
Wag naman sana

Chorus:
G           Bm                 C
 Akin ka na lang (akin ka na lang)
         D            G
Iingatan ko ang puso mo
           Bm                 C
Akin ka na lang (akin ka na lang)
  D
Wala nang hihigit pa sa 'yo

Bridge:

 Di naman sa sinisiraan ko ang pangit na yan

e|--------------------------------------------5-|
B|--------------------------------------------6-|
G|-9----------5-----------------7-------------7-|
D|-9----9-----5-----------------7----------5--7-|
A|-7----9-----3-----------------5----------5----|
E|------7----------------------------------3----|

  Wag ka dapat sa 'kin magduda

e|----------------------------------------------|
B|----------------------------------------------|
G|-9--------------------------------------------|
D|-9-----------------------9--------------------|
A|-7-----------------------9--------------------|
E|-------------------------7--------------------|

  Hinding-hindi kita pababayaan

e|----------------------------------------------|
B|----------------------------------------------|
G|---------5--5-------------------7-7-7-7-7-7---|
D|---------5--5---------5--5------7-7-7-7-7-7---|
A|---------3--3---------5--5------5-5-5-5-5-5---|
E|----------------------3--3--------------------|
           ^  ^         ^  ^

Chorus 2:
G           Bm               C 
 Akin ka na lang (akin ka na lang)
            D            G
Liligaya ka sa pag ibig ko
           Bm               C
Akin ka na lang (akin ka na lang)
  D
Wala ng hihigit pa sa yo

e|---------------------------------5-x-5-|
B|---------------------------------6-x-6-|
G|----------------------5----------7-x-7-|
D|-5----------9---------5----------7-x-7-|
A|-5----------9---------3----------------|
E|-3----------7--------------------------|
 |                                 ^   ^
 |
e|----------------------------------------|
B|----------------------------------------|
G|-------12---14h15-12---------12-12-x-12-|
D|-12h14-----------------12h14------------|
A|----------------------------------------|
E|----------------------------------------|
                                   
e|---------------------------------5-x-5-|
B|---------------------------------6-x-6-|
G|----------------------5----------7-x-7-|
D|-5----------9---------5----------7-x-7-|
A|-5----------9---------3----------------|
E|-3----------7--------------------------|
 |                                 ^   ^
 |
e|----------------------------------------|
B|----------------------------------------|
G|-------12---14h15-12---------12-12-x-12-|
D|-12h14-----------------12h14------------|
A|----------------------------------------|
E|----------------------------------------|

e|----------------------------------------|
B|----------------------------------------|
G|---------------------------9--7--9--7---|
D|-5----------9--------------9--7--9--7---|
A|-5----------9--------------7--5--7--5---|
E|-3----------7---------------------------|
 |
 |
e|----------------------------------------|
B|----------------------------------------|
G|-------12---14h15-12-------9--7--7--7---|
D|-12h14---------------------x--x--x--x---|
A|---------------------------7--5--9--5---|
E|----------------------------------------|

end

=============================================================================
Tap to rate this tab
# A B C D E F G H I J K L M N O P Q R S T U V W X Y Z