Song name
# A B C D E F G H I J K L M N O P Q R S T U V W X Y Z

Itchyworms - Buwan tab

Help us improve GuitareTab! Take a short survey!
Highlighted       Show chord diagrams
Chords lng po ng "BUWAN"
Wala po kc ako mahanap na chords kaya kinapa ko lng
pasensya na kung may mali,
pa rate na lng po salamat!!
Rak en roll.

(intro)
e--------x-x-x---x---x-x----|
B--------x-x-x---x---x-x----|
G--------x-x-x---x---x-x----|
D--------6h7-6---4---6-2----| (2X)
A---------------------------|
E--------x-x-x---x---x-x----|

e--------x-x-x---x---x-x----------x-x-x---x---x-x---------------|
B--------x-x-x---x---x-x----------x-x-x---x---x-x---------------|
G--------6h7-6---4---6-2----------x-x-x---x---x-x---------------|
D---------------------------------6h7-6---4---6-2---------------| 
A--------x-x-x---x---x-x----------x-x-x---x---x-x------------2--|
E--------x-x-x---x---x-x----------x-x-x---x---x-x---0--4-5------|

(yung stanza same sa intro pero pwede samahan ng chords)

  I Stanza

          A
Tatlong huwebes na ang dumaan,
                    D               A
Di pa rin nasasakyan na wala ka na
       A                                 D                   A
Iniwanan na ng panahon, di pa rin makaahon, swimming sa luha
  F#m                B
Ginagawa kahit ano, matapos lang ang gabing ito
  D                 E 
Bakit ang bagal ng relo?



(CHORUS)
 D             Dm
Naninikip ang tiyan nakatingin sa buwan
 A             F#m       
Malayo kat wala nang magawa
 D             Dm                        A
Hanap ang yong kamay, wala kong kaakbay
             F#m
Nasan ka na kaya?
 D                   A      F#     D                   A  F#           
Parang kahapon lang tayo ay magkayakap sa ilalim ng buwan
             A  F#m
Ilalim ng buwan

   II Stanza  

Ilang beses kung aking tignan
(Ang) maganda mong larawan bago humiga
Umaasa sa panaginip, kahit na isang idlip, ay makita ka

Hindi pa rin mapakali, di maamoy ang yong pisngi,
Kahit na konting sandali

Repeat CHORUS

Ilalim ng buwa  an

INSTRUMENTAL

BRIDGE
   A       B     A     B
Pag nag iisa iniisip kita
  E        A     E        A
Babalik ka ba, nasan ka kaya?
    A       B     A       B
Wag magluluha, wag mag-alala
  E           A     E           A         D     
Nandito lang ako naghihintay sa yo sa ilalim ng buwan
 Dm    A  F#m
Ilalim ng buwan

Repeat CHORUS

Ilalim ng buwa  an (2x) Ilalim ng buwa  an (2x) 


Salamat po Paki Rate na lng !!!! Rak En Roll
Para sa inyo lahat to!!!
pa add na lng po sa Friendster byebyekanaboi03@yahoo.com
Related for Buwan tab