Song name
# A B C D E F G H I J K L M N O P Q R S T U V W X Y Z

Itchyworms - Seasons Of Smile tab

Title          : Seasons of Smiles
Artist         : Itchyworms
Album	       : Close-up Christmas CD[2006]

Guitar Tabber  : Timothy Earl Quiambao
Friendster     : timothyearlq@yahoo.com
YM             : timearl87yahoo.com
Website        : www.freewebs.com/timearl

School         : De La Salle University, Dasmariņas
Contact no     : 09217762915
Date of Tab    : November 02, 2006

This song is part of Close-Up Christmas Album!
Please Rate It!

Guitar Legends:
/\ - SLIDE
~  - LET IT RING
.  - PALM MUTING

---------------
Standard Tuning
---------------

//Intro

Guitar 1 : Lead Guitar

e|-------3-----3-------3-----3-------3------3-------3-------3---------|
B|---3-----3-------3-----3-------3------3-------3------3--------------|
G|-0---0-----0--------------------------------------------------------|
D|---------------2---2-----2---0---0------0---------------------------|
A|--------------------------------------------3---3------3------------|
E|--------------------------------------------------------------------|

Guitar 2 : Rhythm Guitar (distorted)

-->power chords

e|---------------------------|
B|---------------------------|
G|-777/99999\111111/9999-----|
D|-xxx-xxxxx-xxxxxx-xxxx-----|
A|-555/77777\9-9-9-/7777-----|
E|---------------------------|
					2x
e|--------------------------------|
B|--------------------------------|
G|-777/99999\111111/12121212\-----|
D|-xxx-xxxxx-xxxxxx-xxxxxxxx\-----|
A|-555/77777\9-9-9-/10101010\-----|
E|--------------------------------|

//Verse:

Guitar 1 : Lead Guitar

e|-------3-----3-------3-----3-------3------3-------3-------3---------|
B|---3-----3-------3-----3-------3------3-------3------3--------------|
G|-0---0-----0--------------------------------------------------------|
D|---------------2---2-----2---0---0------0---------------------------|
A|--------------------------------------------3---3------3------------|
E|--------------------------------------------------------------------|
   It's Christmas and you're feeling down I'm gonna pass the smile around

Guitar 2 : Rhythm Guitar (distorted)

-->power chords

      G       D     C
e|------------------------------|
B|------------------------------|
G|------------------------------|
D|-----------777--55555---------|
A|-55555555--555--33333---------|
E|-33333333---------------------|
   ........  ...  .....

Familiarize nio nalang ung song..

//Pre-Chorus : Use Basic Chords (Isang Strum Lang Bawat Chords)
  
 C		 Am
Don't forget to wear a smile...
 F		      Am		D
You'll never know who's smiling back at you

-->power chords (distorted)

e|-------------------|
B|-------------------|
G|-------------------|
D|--55555555---------|
A|--33333333---------|
E|-------------------|

//Chorus:

-->power chords (distorted)

      G           D     C
e|----------------------------------|
B|----------------------------------|
G|----------------------------------|
D|---------------777--55555---------|
A|-55555555------555--33333---------|
E|-33333333-------------------------|
   Every time I see you
      
      G       			      D     C
e|------------------------------------------------------|
B|------------------------------------------------------|
G|------------------------------------------------------|
D|-----------------------------------777--55555---------|
A|-55555555--------------------------555--33333---------|
E|-33333333---------------------------------------------|
   I hear there's something that'll make you smile

      G               D     C
e|--------------------------------------|
B|--------------------------------------|
G|--------------------------------------|
D|-------------------777--55555---------|
A|-55555555----------555--33333---------|
E|-33333333-----------------------------|
   So kiss me if you want to

     G               D     C
e|--------------------------------------|
B|--------------------------------------|
G|--------------------------------------|
D|-------------------777--55555---------|
A|-55555555----------555--33333---------|
E|-33333333-----------------------------|
   Don't you worry if we're apart

   
e|----------------------------------------|
B|----------------------------------------|
G|-4~-------5~------4~-------5~-----/7~---|
D|-4~-------5~------4~-------5~-----/7~---|
A|-2~-------3~------2~-------3~-----/5~---|
E|----------------------------------------|
I hope this season will be a reason enough to make you smile

Guitar 2 : Rhythm Guitar (distorted)

-->power chords

e|---------------------------|
B|---------------------------|
G|-777/99999\111111/9999-----|
D|-xxx-xxxxx-xxxxxx-xxxx-----|
A|-555/77777\9-9-9-/7777-----|
E|---------------------------|
					2x
e|--------------------------------|
B|--------------------------------|
G|-777/99999\111111/12121212\-----|
D|-xxx-xxxxx-xxxxxx-xxxxxxxx\-----|
A|-555/77777\9-9-9-/10101010\-----|
E|--------------------------------|

Verse 2 : Just Play Verse 1

Repeat Pre-Chorus and Chorus:

Last Chords:

    G             D     C         G       D      C
e|-----------------------------------------------------|
B|-----------------------------------------------------|
G|-----------------------------------------------------|
D|---------------777--55555--------------777---55555---|
A|-55555555------555--33333---55555555---555---33333---|
E|-33333333-------------------33333333-----------------|
   Every time I see you..

-----
 END
-----
Tap to rate this tab
# A B C D E F G H I J K L M N O P Q R S T U V W X Y Z