Guitaretab - guitar tabs
Song name
# A B C D E F G H I J K L M N O P Q R S T U V W X Y Z

Its A Beautiful Day - Girl With No Eyes tab

The 1st part of this tab is just the chords with the lyrics.
On the 2nd part you'll find the whole guitar tab (without the lyrics).

                            CHORDS

Verse 1

          Bm         Bm/A         Bm/G        F#           Bm   Bm/A Bm/G F#
There's a girl in my room and her face on the wall with no eyes.
          Bm         Bm/A         Bm/G        F#           Bm   Bm/A Bm/G F#
There's a girl in my room and her face on the wall with no eyes.

Pre Chorus 1

D
Girl with no eyes,
F#m
who can she be?
Bm
Girl with no eyes,
      F#
she's looking at me.

Verse 2

          Bm         Bm/A         Bm/G        F#           Bm   Bm/A Bm/G F#
There's a girl in my room and her face on the wall with no eyes.
   Bm       Bm/A         Bm/G          F#         Bm   Bm/A Bm/G F#
If I make a sound she'll know that I'm stirring inside.
   Bm       Bm/A         Bm/G          F#         Bm   Bm/A Bm/G F#
If I make a sound she'll know that I'm trying to hide.

Pre Chorus 2

D
Girl with no eyes,
F#m
who can she be?
Bm
Girl with no eyes,
F#
she's looking at me.
D
Beautiful girl,
F#m
who does she see?
Bm
Beautiful girl,
F#
she seems to be staring.

Chorus

        Bm
Doesn't everybody know, everybody know,
             A
love takes a lifetime.
            Bm
And doesn't everybody know, everybody know,
            A
love is the eye sight,
         G              F#
it's the eye sight of a lifetime.

Verse 3

      Bm       Bm/A        Bm/G       F#               Bm  Bm/A Bm/G F#
She's just a reflection of all of the time that's gone by.
      Bm       Bm/A        Bm/G       F#               Bm  Bm/A Bm/G F#
She's just a reflection of all of the time I've been high.

Pre Chorus 2

D
Girl with no eyes,
F#m
who can she be?
Bm
Girl with no eyes,
F#
she's looking at me.
D
Beautiful girl,
F#m
who does she see?
Bm
Beautiful girl,
F#
she seems to be staring.

Chorus

        Bm
Doesn't everybody know, everybody know,
             A
love takes a lifetime.
            Bm
And doesn't everybody know, everybody know,
            A
love is the eye sight,
         G              F#
it's the eye sight of a lifetime.

Outro (Instrumental):

Bm Bm/A Bm/G F# (x3)
B

--------------------------------------------------------------------

                              TAB


Intro (Keyboard)

     Bm           Bm/A           Bm/G     F#          Bm           Bm/A
     S  S S S S S E    E  S S    Q    S S E  E  E     S  S S S S S E    Q
E||---------------------------|--------------------|--------------------7----|
B||-----------7-8-7---------7-|--------------------|-----------7-8-7---------|
G||-----6-7-9-------------9---|--9----7-9-7-----6--|-----6-7-9---------------|
D||--9------------------------|--------------------|--9----------------------|
A||---------------------------|--------------------|-------------------------|
E||---------------------------|--------------------|-------------------------|


  Bm/G          F#
  E     S S S S Q    E
-------10-9-7-9-9-------||
------------------------||
------------------------||
------------------------||
------------------------||
------------------------||

Verse 1

   Bm   Bm/A    Bm/G   F#         Bm           Bm/A    Bm/G          F#
                             3x   E  E  E  S S Q       E     E.   S  Q     E
--------------|---------------||--------------------|-------------------------|
--------------|---------------||--------------------|-------------------------|
*-------------|--------------*||-----6--7--9-7-6----|--7s---12---12-12----11--|
*-------------|--------------*||--9-----------------|-------------------------|
--------------|---------------||--------------------|-------------------------|
--------------|---------------||--------------------|-------------------------|

Pre Chorus 1

   D                          F#m                      Bm                    F#
   E   E   E   E   E   E      E   E   E  E   E   E     E  E  E  E  E  E      E   E   E  E  E   E
--------------10----------|--------------9----------|-----------7--------|--------------9--------|
----------10------10------|----------10-----10------|--------7-----7-----|----------11-----11----|
------11--------------11--|------11-------------11--|-----7-----------7--|------11-------------11|
--12----------------------|--11---------------------|--9-----------------|--11-------------------|
--------------------------|-------------------------|--------------------|-----------------------|
--------------------------|-------------------------|--------------------|-----------------------|


Verse 2

  Bm     Bm/A      Bm/G   F#
  Q.     Q.        Q.     Q.        E  E  E  S S Q       S S S S E  E  E  E
----------------|----------------|--------2-----------|----------------------|
----------------|----------------|-----3-----5-3-2----|--5-3-2------------2--|
----------------|----------------|--4-----------------|--------4-3-----3-----|
----------------|----------------|--------------------|-------------4--------|
----------------|----------------|--------------------|----------------------|
----------------|----------------|--------------------|----------------------|


  Bm     Bm/A      Bm/G   F#
  Q.     Q.        Q.     Q.        Q  E   Q  E      E.  S E  E.  S E
----------------|----------------|----------------|--------------------|
----------------|----------------|----------------|-----------------2--|
----------------|----------------|--4--4---2--2---|--0---2-0------3----|
----------------|----------------|----------------|-----------4--------|
----------------|----------------|----------------|--------------------|
----------------|----------------|----------------|--------------------|


  Bm     Bm/A      Bm/G   F#
  Q.     Q.        Q.     Q.        Q  E   Q  E      E.  S E  E  E  E
----------------|----------------|----------------|--------------------|
----------------|----------------|----------------|-----------------2--|
----------------|----------------|--4--4---2--2---|--0---2-0-----3-----|
----------------|----------------|----------------|-----------4--------|
----------------|----------------|----------------|--------------------|
----------------|----------------|----------------|--------------------|

Pre Chorus 2
[ Tab from: http://www.guitaretab.com/i/its-a-beautiful-day/116642.html ]
   D                          F#m                      Bm
   E   E   E   E   E   E      E   E   E  E   E   E     E  E  E  E  E  E
--------------10----------|--------------9----------|-----------7--------|
----------10------10------|----------10-----10------|--------7-----7-----|
------11--------------11--|------11-------------11--|-----7-----------7--|
--12----------------------|--11---------------------|--9-----------------|
--------------------------|-------------------------|--------------------|
--------------------------|-------------------------|--------------------|


   F#                        D                          F#m
   E   E   E  E   E   E      E   E   E   E   E   E      E   E   E  E   E   E
--------------9----------|--------------10----------|--------------9----------|
----------11-----11------|----------10------10------|----------10-----10------|
------11-------------11--|------11--------------11--|------11-------------11--|
--11---------------------|--12----------------------|--11---------------------|
-------------------------|--------------------------|-------------------------|
-------------------------|--------------------------|-------------------------|


  Bm                    F#
  E  E  E  E  E  E      E   E   E  E   E   E      E   E   E  E   E   E
-----------7--------|--------------9----------|--------------9----------|
--------7-----7-----|----------11-----11------|----------11-----11------|
-----7-----------7--|------11-------------11--|------11-------------11--|
--9-----------------|--11---------------------|--11---------------------|
--------------------|-------------------------|-------------------------|
--------------------|-------------------------|-------------------------|

   E   E   E  Q.
--------------9------||
----------11---------||
------11-------------||
--11-----------------||
---------------------||
---------------------||


Chorus

(notice the Bm riff is played only by the violin)

   Bm   (violin)                  A  (guitar)
   S  S S S S S S S S S S S       S S S S S S S S S S S S
-----------------------------||----------------------------||
-----------------------------||----------------------------||
*--7--6-4-------7-6-4-------*||*--6-4---------6-4---------*||  X3
*---------7-4---------7-4---*||*------7-4---------7-4-----*||
--------------7-----------7--||-----------7-4---------7-4--||
-----------------------------||----------------------------||


   G                            F#
   S S S S S S S S S S S S      E  E  E   E   E   E
----------------------------||-----------------------|
----------------------------||---------------11------|
*--4-2---------4-2---------*||-------------------11--|
*------5-2---------5-2-----*||--------4--11----------|
-----------5-2---------5-2--||-----4-----------------|
----------------------------||--6--------------------|


    E   E   S  S  E    Q
-----------14---------------||
-------14-----14------------||
--/15------------15s--11----||
----------------------------||
----------------------------||
----------------------------||

Interlude+Verse 3

     Bm      Bm/A       Bm/G      F#
     Q    E  Q    E     E.   S E  E.  S E   8x
||-------------------|----------------------||
||-------------------|------------------2---||
||*--4----4--2----2--|--0----2-0------3----*||
||*------------------|------------4--------*||
||-------------------|----------------------||
||-------------------|----------------------||


  Bm           Bm/A    Bm/G          F#
  E  E  E  S S Q       E     E.   S  Q     E
--------------------|-------------------------|
--------------------|-------------------------|
-----6--7--9-7-6----|--7s---12---12-12----11--|
--9-----------------|-------------------------|
--------------------|-------------------------|
--------------------|-------------------------|

Pre Chorus 2

Chorus

Outro (guitar)

  Bm      Bm/A
  Q    E  Q    E
------------------|
------------------|
--4----4--2----2--|
------------------|
------------------|
------------------|

  Bm/G     F#             Bm         Bm/A           Bm/G        F#
  E  E  E  S S S S S S    E  S S S S S S S S S S    S S S S S S E  E  E
-----------------------|-------------------------|-----------------------|
-----------------------|-------------------------|--------------------2--|
--0--2--0--------------|---------------------2-4-|--4-6-4-2---2----3-----|
-----------4---0-2---0-|-----------2-4-2-4-5-----|----------5---4--------|
-------------4-----4---|--5--2-4-5---------------|-----------------------|
-----------------------|-------------------------|-----------------------|

  S S S S S S S S S S S S    S S S S S S S S S S S S
--------------------------|--------------------------|
--------------------------|--------------------------|
--4-2---------------------|--------------------------|
------5-4-2---2-4---2-5-4-|--2-4---2-------------2---|
------------5-----5-------|------5---4-5---2-5-4---5-|
--------------------------|--------------6-----------|

Outro (violin)


     Bm           Bm/A              Bm/G           F#
     S  S S S S S S    S S S S S    S    S S S S S S  S S S S S  x2
||-------------------------------|-------------------------------||
||-------------------------------|-------------------------------||
||*--7--6-4-------7----6-4-------|--7----6-4-------6--4---------*||
||*---------7-4------------7-4---|-----------7-4--------7-4-----*||
||--------------7--------------7-|---------------7----------7-4--||
||-------------------------------|-------------------------------||


  Bm           Bm/A              Bm/G           F#                     B
  S  S S S S S S    S S S S S    S    S S S S S S  S S S S S    Q.     Q.
------------------------------|------------------------------|---------2------||
------------------------------|------------------------------|---------4------||
--7--6-4-------7----6-4-------|--7----6-4-------6--4---------|--6------4------||
---------7-4------------7-4---|-----------7-4--------7-4---4-|---------4------||
-------------7--------------7-|---------------7----------7---|---------2------||
------------------------------|------------------------------|----------------||


Duration Legend
---------------
W - whole
H - half
Q - quarter
E - 8th
S - 16th
T - 32nd
X - 64th
. - note dotted
|-n-|  - n-tuplets


Tablature Legend
----------------
L - tied note
x - dead note
g - grace note
(n) - ghost note
> - accentuded note
NH - natural harmonic
AH - artificial harmonic
TH - tapped harmonic
SH - semi harmonic
PH - pitch harmonic
h - hammer on
p - pull off
b - bend
br - bendRelease
pb - preBend
pbr - preBendRelease
brb - bendReleaseBend
\n/ - tremolo bar dip
\n - tremolo bar dive
-/n - tremolo bar Release up
/n\ - tremolo bar inverted dip
/n - tremolo bar return
-\n - tremolo bar Release down
S - shift slide
s - legato slide
/ -  slide into from below or out of upwards
\ -  slide into from above or out of downwards
~ - vibrato
W - wide vibrato
tr - trill
TP - tremolo picking
T - tapping
S - slap
P - pop
< - fade in
^ - brush up
v - brush down
Related for Girl With No Eyes tab
Advertisement will be closed in 10 seconds