Song name
# A B C D E F G H I J K L M N O P Q R S T U V W X Y Z

Ivan Montenegro - Ejercicio tab

#----------------------------------PLEASE NOTE--------------------------------#
#This file is the author's own work and represents their interpretation of the#
#song. You may only use this file for private study, scholarship, or research.#
#-----------------------------------------------------------------------------#
#-- File created with Instab - http://www.pconline.com/~smcarey/instab.html --#
#-----------------------------------------------------------------------------#

Author/Artist: Ivan Montenegro
Title: Ejercicio para los dedos
Album: none
Transcribed by: Ivan Montenegro
Email: Panas22@hotmail.com

Este ejercicio es muy bueno para la rapides y la apertura de tus dedos, suena bien harmonisada y es divertida.

-|---------------------------------------------------------------------------|
-|----------------------------------------------------------2-----3--2--5--3-|
-|----------------------------------------------2-----4--2-----4-------------|
-|----------------------------2-----4--2--6--4-----6-------------------------|
-|----------2-----4--2--5--4-----5-------------------------------------------|
-|-2--5--4-----5-------------------------------------------------------------|


-|-2-----4--2--5--4--7--5----------------------------------------------------|
-|----5----------------------------------------------------------------------|
-|---------------------------------------------------------------------------|
-|---------------------------------------------------------------------------|
-|---------------------------------------------------------------------------|
-|---------------------------------------------------------------------------|
Tap to rate this tab
# A B C D E F G H I J K L M N O P Q R S T U V W X Y Z