Song name
# A B C D E F G H I J K L M N O P Q R S T U V W X Y Z

Ivory Knight - Eleven tab

-----------------------------------------------------------------------------
			     Eleven  Ben Kenney
-----------------------------------------------------------------------------
Tabbed by: Niscimble
Email: peteypablo2131@yahoo.com

This is actually just part of the whole song... this riff involves all of the verses and 
intro.
I'm beginning work on the chorus.
If you already know it please send it to me!  It will save me some work.

Tuning: Standard

e|--------------------------------------------------------------------------|
B|--------------------------------------------------------------------------|
G|----8-8-9--8-9--8-----------8-8-9--8--------------------------------------|
D|----9-9-11-9-11-9-------9---9-9-11-9-7-6----------2-xx-2-2-xx-2-2-xx-2----|
A|----7-7-7--7-7--7-----7-----7-7-7--7-9-7--------7-2-xx-2-2-xx-2-2-xx-2----|
E|--0---------------7-9-----0--------------0-2/4-7--0-xx-0-0-xx-0-0-xx-0----|

e|--------------------------------------------------------------------------|
B|--------------------------------------------------------------------------|
G|----------------------------------------8-8-9--8-9--8-------8-8-9--8------|
D|--x-2-2---2-2-xx-2-2-x-11-9-------------9-9-11-9-11-9---9---9-9-11-9-7-6--|
A|--x-2-2---2-2-xx-2-2-x-7--7-------4-7---7-7-7--7-7--7--7----7-7-7--7-9-7--|
E|--x-0-0---0-0-xx-0-0-x------0-4-7-----0---------------9---0---------------|


| /  slide up
| \  slide down
| h  hammer-on
| p  pull-off
| ~  vibrato
| +  harmonic
| x  Mute note
=============================================================================

www.benkenney.com
Tap to rate this tab
# A B C D E F G H I J K L M N O P Q R S T U V W X Y Z