Song name
# A B C D E F G H I J K L M N O P Q R S T U V W X Y Z

Ivy - This Is The Day tab

Help us improve GuitareTab! Take a short survey!
=--------2-------------------2----------------------------------------------|
=-----------3p1h3---------------3p1h3------------5-----------------5--------|
=---------------------------------------------------6p4h6-------------6p4h6-|
=----0------------------0------------------/4------------------/4-----------|
=--2------------------0------------------0----------------------------------|
=------------------------------------------------------------0--------------|

Then the big bar chords before the chorus are, played as loud as possible

--x------x-----------------x------x----------------------------------------|
--10-----9-----------------5------7----------------------------------------|
--11-----9--(Ring)---------6------7---(Ring)-------------------------------|
--11-----9-----------------6------7----------------------------------------|
--9------7-----------------4------5----------------------------------------|
--x------x-----------------x------x----------------------------------------|


Thats all ive got for the lead guitar at the moment, but i should figure more soon.
Related for This Is The Day tab