Song name
# A B C D E F G H I J K L M N O P Q R S T U V W X Y Z

Ivy - Edge Of The Ocean tab

-------------------------------------------------------------------------------
			     EDGE OF THE OCEAN - Ivy
-------------------------------------------------------------------------------
Tabbed by: Leah Pritchard
Email: drlazmeister@hotmail.com

This song is played in one of the episodes of Roswell High.

Tuning:

e|--------------|
B|-----1--2--1--|
G|--1-----------|  x2
D|--------------|
A|--------------|
E|--------------|

e|--------------|
B|-----1--2--1--|
G|--------------|  x2
D|--4-----------|
A|--------------|
E|--------------|

e|--------------|
B|-----1--2--1--|
G|--------------|  x2
D|--3-----------|  
A|--------------|
E|--------------|

e|--------------|
B|-----1--2--1--|
G|--1-----------|  x2
D|--------------|
A|--------------|
E|--------------|


===============================================================================
Tap to rate this tab
# A B C D E F G H I J K L M N O P Q R S T U V W X Y Z